3 Doors Down - The Road Im On Chords & Tabs

 

The Road Im On Chords & Tabs

3 Doors Down Chords & Tabs

Version: 1 Type: Tab 0 ratings
1 star 2 stars 3 stars 4 stars 5 stars
comments

The Road Im On Tab

   
#-----------------------------------------------------------------------------#
#-- File created with Instab - http://www.pconline.com/~smcarey/instab.html --#
#-----------------------------------------------------------------------------#
Author/Artist: 3 Doors Down
Title: The Road I'm On
Album: Away From The Sun
Transcribed by: Mateobus
Email: matthew.t.wolin@lawrence.edu

This is my first tab, and you know how sometimes when 
people say its their first tab and its perfect, well, this is not 
one of those times, enjoy:

Intro/Verse:
[ Tab from: http://www.guitartabs.cc/tabs/0-9/3_doors_down/the_road_im_on_tab.html ]
--------------------------------0-------------------------------------0-------
-----------------1p0------------1-----------------------------1p0-----1-------
---------------------0-------2--0---------------------------------0---2-------
-----2-------0-------------2----2------------------2------0-----------2-------
---2-------2-------------0------3----3p2--0h2----2------2-------------0-------
-0-------3-------------------------------------0------3-----------------------
 Em       G        Am           C             Em      G           Am          

This is the intro riff. The verse is pretty much the same thing so 
you can play the chords or pick through them.

Chorus/Bridge/Solo

------------------------------------------------------------------------------
------------------------------------------------------------------------------
----------------------------5-5-5---------------------------------------------
-2-2-2---5-5-5-----7-7-7----5-5-5---------------------------------------------
-2-2-2---5-5-5-----7-7-7----3-3-3---------------------------------------------
-0-0-0---3-3-3-----5-5-5------------------------------------------------------
   E5     G5         A5       C5  

Repeat a few times on last time, end on the c5, it will make more sense if you
listen to the cd.

Email me!
Comments