3 Doors Down - The Road Im On Chords & Tabs

 

The Road Im On Chords & Tabs

3 Doors Down Chords & Tabs

Version: 1 Type: Bass Tab 0 ratings
1 star 2 stars 3 stars 4 stars 5 stars
comments

The Road Im On Bass Tab

Band- 3 Doors Down
Song- The Road I'm On

5 String
Standard Tuning

Intro:

G|-------|
D|-------|
A|-------|
E|--12/--|
B|-------|

Verse 1:

G|-----------------------------|
D|-----------------------------|
A|-------------------3--3-3-2--| x3
E|--0---3--3-0h3-5-------------|
B|-----------------------------|

G|---------------------|
D|---------------------|
A|---------------------|
E|--0---3--3-0h3-5~~~--|
B|---------------------|

G|-----------------------------|
D|-----------------------------|
A|-------------------3--3-3-2--| x3
E|--0---3--3-0h3-5-------------|
B|-----------------------------|

G|-----------------------|
D|-----------------------|
A|-----------------3--3--|
E|--0---3--3-0h3-5-------|
B|-----------------------|

Chorus:

G|-----------------------------------------|
D|-----------------------------------------|
A|-----------------------------3--3-3-3/2--|
E|--0--0-0-3--3-3-3-0h3-5--5-5-------------|
B|-----------------------------------------|

G|-----------------------------------|
D|-----------------------------------|
A|--7--7-7-5--5-5-5-3--3-3-----------|
E|-------------------------5--5-3-5--|
B|-----------------------------------|

G|-----------------------------------|
D|-----------------------------------|
A|-----------------------------------|
E|--0--0-0----------3--3-3-5--5-3-5--|
B|---------3--3-3-3------------------|

G|-----------------------------|
D|-----------------------------|
A|--7--7-7-5--5-5-5--0h2-3~~~--|
E|-----------------------------|
B|-----------------------------|

Verse 2:

G|-----------------------------|
D|-----------------------------|
A|-------------------3--3-3-2--| x3
E|--0---3--3-0h3-5-------------|
B|-----------------------------|

G|-----------------------|
D|-----------------------|
A|-----------------3--3--|
E|--0---3--3-0h3-5-------|
B|-----------------------|

Chorus:
[ Tab from: http://www.guitartabs.cc/tabs/0-9/3_doors_down/the_road_im_on_btab.html ]
G|-----------------------------------------|
D|-----------------------------------------|
A|-----------------------------3--3-3-3/2--|  =====\
E|--0--0-0-3--3-3-3-0h3-5--5-5-------------|       |
B|-----------------------------------------|       |
                                                   |
G|-----------------------------------|             |
D|-----------------------------------|             |
A|--7--7-7-5--5-5-5-3--3-3-----------|             |
E|-------------------------5--5-3-5--|             |
B|-----------------------------------|             |
                                                   |---- x2
G|-----------------------------------|             |
D|-----------------------------------|             |
A|-----------------------------------|             |
E|--0--0-0----------3--3-3-5--5-3-5--|             |
B|---------3--3-3-3------------------|             |
                                                   |
G|-------------------------------|                 |
D|-------------------------------|                 |
A|--7--7-7-5--5-5-5-3--3-3-------|  ===============/
E|-------------------------5--5--|
B|-------------------------------|

Bridge:

G|-----------------------------------|
D|-----------------------------------|
A|-----------------------------------|
E|--0--0-0----------3--3-3-5--5-3-5--|
B|---------3--3-3-3------------------|

G|-----------------------------------|
D|-----------------------------------|
A|---------5--5-5-5-3--3-3-----------|
E|--0--0-0-----------------5--5-3-5--|
B|-----------------------------------|

G|-----------------------------------|
D|-----------------------------------|
A|-----------------------------------|
E|--0--0-0----------3--3-3-5--5-3-5--|
B|---------3--3-3-3------------------|

G|------------------------|
D|------------------------|
A|--7--7-7-5--5-5-5-3~~~--|
E|------------------------|
B|------------------------|

G|--------|
D|--------|
A|--rest--| x4
E|--------|
B|--------|

G|--------|
D|--------|
A|--3--3--|
E|--------|
B|--------|

Chorus:

G|-----------------------------------------|
D|-----------------------------------------|
A|-----------------------------3--3-3-3/2--|  =====\
E|--0--0-0-3--3-3-3-0h3-5--5-5-------------|       |
B|-----------------------------------------|       |
                                                   |
G|-----------------------------------|             |
D|-----------------------------------|             |
A|--7--7-7-5--5-5-5-3--3-3-----------|             |
E|-------------------------5--5-3-5--|             |
B|-----------------------------------|             |
                                                   |-- x2
G|-----------------------------------|             |
D|-----------------------------------|             |
A|-----------------------------------|             |
E|--0--0-0----------3--3-3-5--5-3-5--|             |
B|---------3--3-3-3------------------|             |
                                                   |
G|-------------------------------|                 |
D|-------------------------------|                 |
A|--7--7-7-5--5-5-5-3--3-3-------|  ===============/
E|-------------------------5--5--|
B|-------------------------------|

Ending:

G|-----------------------------------|
D|-----------------------------------|
A|-----------------------------------|  =====\
E|--0--0-0----------3--3-3-5--5-3-5--|       |
B|---------3--3-3-3------------------|       |
                                             |-- x2
G|-----------------------------------|       |
D|-----------------------------------|       |
A|---------5--5-5-5-3--3-3-----------|  =====/
E|--0--0-0-----------------5--5-3-5--|
B|-----------------------------------|

G|--------|
D|--------|
A|--------|
E|--0~~~--|
B|--------|
Comments