3 Doors Down - So I Need You Acoustic Chords & Tabs

 

So I Need You Acoustic Chords & Tabs

3 Doors Down Chords & Tabs

Version: 1 Type: Tab 0 ratings
1 star 2 stars 3 stars 4 stars 5 stars
comments

So I Need You Acoustic Tab

            
This is the Tab....the first one i sent was totally wrong because i missed  
the G string(whoops), but this one is correct  I figured since there were no  
other tabs done for this song, that I would give it a try.  This tab is very  
accurate, I'm still trying to figure out the verses and chorus, but the intro  
is pretty damn cool itself!  

3-Doors Down-So I Need You(Acoustic)  

Intro  
[ Tab from: http://www.guitartabs.cc/tabs/0-9/3_doors_down/so_i_need_you_acoustic_tab.html ]
e|------0-------0-------5-5-5-5-5-5----3-3-3-3-3-3-----2-2-2----3-3--|  
a|------0-------0-------5-5-5-5-5-5----3-3-3-3-3-3-----2-2-2----3-3--|  
d|------0-------0-------7-7-7-7-7-7----5-5-5-5-5-5-----4-4-4----5-5--|  
g|------0-------0-------7-7-7-7-7-7----5-5-5-5-5-5-----4-4-4----5-5--|  
b|------2-------2-------5-5-5-5-5-5----3-3-3-3-3-3-----2-2-2----3-3--|  
E|--0-------0-----------5-5-5-5-5-5----3-3-3-3-3-3-----2-2-2----3-3--|  


e|------0-------0-------5-5-5-5-5-5----3-3-3-3-3-3-----2-2-2----3-3--|  
a|------0-------0-------5-5-5-5-5-5----3-3-3-3-3-3-----2-2-2----3-3--|  
d|------0-------0-------7-7-7-7-7-7----5-5-5-5-5-5-----4-4-4----5-5--|  
g|------0-------0-------7-7-7-7-7-7----5-5-5-5-5-5-----4-4-4----5-5--|  
b|------2-------2-------5-5-5-5-5-5----3-3-3-3-3-3-----2-2-2----3-3--|  
E|--0-------0-----------5-5-5-5-5-5----3-3-3-3-3-3-----2-2-2----3-3--|  


Comments