3 Doors Down - Smack Chords & Tabs

 

Smack Chords & Tabs

3 Doors Down Chords & Tabs

Version: 3 Type: Tab 0 ratings
1 star 2 stars 3 stars 4 stars 5 stars
comments

Smack Tab

   
Song: Smack
Artist: 3 Doors Down
Tabbed by: Jeremy McCully

Standard Tuning
pm = palm mute

2 Guitars w/ distortion

Intro (guitar 2 w/wah + guitar 1)
e|-----------------------------------------------------|
B|-----------------------------------------------------|
G|-----------------------------------------------------|
D|-9-9xx-2-22-xx-5-5xx-7-77-xx-------------------------|
A|-9-9xx-2-22-xx-5-5xx-7-77-xx-------------------------|
E|-7-7xx-0-00-xx-3-3xx-5-55-xx-------------------------|

Pre-Verse
e|-----------------------------------------------------|
B|-----------------------------------------------------|
G|---------7-7-77------------11---10-------------------|
D|-9-9-99--7-7-77--7-7-77------------------------------|
A|-9-9-99--5-5-55--7-7-77--9----8----------------------|
E|-7-7-77----------5-5-55------------------------------|
  pm      pm      pm

Verse
e|-----------------------------------------------------|
B|-----------------------------------------------------|
G|---------7-7-77-------------11---10------------------|
D|-9-9-99--7-7-77--7-7-77------------------------------|
A|-9-9-99--5-5-55--7-7-77---9----8---------------------|
E|-7-7-77----------5-5-55------------------------------|
  pm.................................


Chorus
e|-----------------------------------------------------|
B|-----------------------------------------------------|
G|-----------------------------------------------------|
D|-9-9-9-9-xx-2-2-2-2-xx-5-5-5-5-xx-7-7-7-7-xx---------|
A|-9-9-9-9-xx-2-2-2-2-xx-5-5-5-5-xx-7-7-7-7-xx---------|
E|-7-7-7-7-xx-0-0-0-0-xx-3-3-3-3-xx-5-5-5-5-xx---------|


Bridge (guitar 2 w/wah + guitar 1)
e|-----------------------------------------------------|
B|----------3^-----------1^----------------------------| Guitar 2 plays
G|----------5^-----------3^----------------------------| these higher notes
D|-----------------------------------------------------| 
A|-5/7-5/7--5---3/5-3/5--3-----------------------------|
E|-3/5-3/5--3---1/3-1/3--1-----------------------------|
   pm.....      pm.....


  


======
[ Tab from: http://www.guitartabs.cc/tabs/0-9/3_doors_down/smack_tab_ver_3.html ]
          "Smack" by "3 doors down" 
          TABBED BY: Trent Fox
          EMAIL: Sandman14000@cs.com
          
          Intro:
          E--------------------------------------------------
          B--------------------------------------------------
          G-----------2--------------------------------------
          D-----4-----2--------------------------------------
          A-----2-----0-----5-5/7-7--------------------------
          E-0-0---0-0---0-0-3-3/5-5--------------------------
          
          Pre-Verse
          E--------------------------
          B--------------------------
          G------------2---11-10-----
          D--4-4--7-7--2-------------
          A--2-2--5-5--0--9--8-------
          E--------------------------
          
          Verse
          E--------------------------
          B--------------------------
          G------------2---11-10-----
          DXX4-4XX7-7XX2XX-----------
          AXX2-2XX5-5XX0XX9--8-------
          E--------------------------
          
          Chorus
          E------------------------------------------
          B------------------------------------------
          G----------------------------------2-2-2-2-
          D-4-4-4-4-XX-2-2-2-2-XX------------2-2-2-2-
          A-2-2-2-2-XX-2-2-2-2-XX-5-5-5-5-XX-0-0-0-0-
          E------------0-0-0-0-XX-3-3-3-3-XX---------
          
          Bridge (Repeat 4 times)
          E-----------------------
          B-----------------------
          G-----------------------
          D-----------------------
          A-5/7-5/7-5--3/5-3/5-3--
          E-3/5-3/5-3--1/3-1/3-1--
          
          Ending Chord
          D-9-
          A-9-
          E-7-
          
          This may not be 100% right, but it is more accurate than the one you have on their right now, and besides, 
          I'm only 13 years old)
          
          ============================

          Band: Three Doors Down
          Song: Smack
          Tabbed by: Mike Loveless
          Standard Tuning (EADGBE)
          
          This song is awesome!
          
          Intro:
          E-----------------------------------------------------------------------------------------
          B-----------------------------------------------------------------------------------------
          G-----------------------------------------------------------------------------------------
          D--4--------------------------------------------------------------------------------------
          A--2-2-5-7--------------------------------------------------------------------------------
          E----0-3-5--------------------------------------------------------------------------------
          Thats the chords for it but listen to the song to get the timing and count right.
          Guitar 2 also plays just the B5 and the E5 with a wah pedal, but the timing is difficult to explain 
          
          Verse:
          E-----------------------------------------------------------------------------------------
          B-----------------------------------------------------------------------------------------
          G-----------------------------------------------------------------------------------------
          D---4---7-------4-4-3-3-------------------------------------------------------------------
          A---2---5---7-----------------------------------------------------------------------------
          E-0---0---0-5-0----------------------------------------------------------------------------
          Again, thats basically how it goes, but listen to the song to get it right.
          The 4-4-3-3 part is played with a wah pedal on Guitar 2
          
          Chorus:
          E-----------------------------------------------------------------------------------------
          B-----------------------------------------------------------------------------------------
          G-----------------------------------------------------------------------------------------
          D-2-2-2--5-5-5--2-2-2-5-5-5/----------------------------------------------------------------
          A-2-2-2--3-3-5--2-2-2-5-5-5/---------------------------------------------------------------
          E-0-0-0--3-3-3--0-0-0-3-3-3/---------------------------------------------------------------
          
          "Dont you ever compromise it, don't you even realize it?"
          That's basically how it goes, but listen to it to get the feel for how it goes
          
          Theres is also this little interlude that I havent got around to figuring out yet, 
          but it seems like you just play some of the basic power chords from the verse.
Comments