3 Doors Down - Right Where I Belong Chords & Tabs

 

Right Where I Belong Chords & Tabs

3 Doors Down Chords & Tabs

Version: 3 Type: Tab 0 ratings
1 star 2 stars 3 stars 4 stars 5 stars
comments

Right Where I Belong Tab

Tabbed by Joe Daly

h=hammer on
p=pull off
br=bend & release
*=Pinch harmonic
/=Slide
pm ...=Palm Mute (only where the ... are)
~=Vibrato

Intro
e-----------------------------------------------------------------------|
B-----------------------------------------------------------------------|
G-----------------------------------------------------------------------|
D---------------------------------------------------5-------------------|
A--0--0-3-5-5br*-3p0-3p0---0---0---0--0-3-5-5br*-3--5-------------------|
E------------------------3-------3------------------3-------------------|

e-----------------------------------------------------------------------|
B-----------------------------------------------------------------------|
G-----------------------------------------------------5-----------------|
D-----------------------------------------------------5-----------------|
A--0--0-3-5-5br*-3p0-3p0---0---0---0--0-3-5-5br*-3p0--3-----------------|
E------------------------3-------3--------------------------------------|

verse x2
e-----------------------------------------------------------------------|
B-----------------------------------------------------------------------|
G-----------------------------------------------------------------------|
D-----------------------------------------------------------------------|
A----5-7---5-7---5-7-----------------5-7---5-7---5-7--------------------|
E--0-----0-----0-----0-3-5-0-3-6---0-----0-----0-----0-3-5-0-5/6-5-3-0~-|
[ Tab from: http://www.guitartabs.cc/tabs/0-9/3_doors_down/right_where_i_belong_tab_ver_3.html ]
e-----------------------------------------------------------------------|
B----------------------5------------------------------------------------|
G----------------------7br--2-5-2---------------------------------------|
D---------------------------------5-2~----------------------------------|
A----5-7---5-7---5-7----------------------------------------------------|
E--0-----0-----0--------------------------------------------------------|

Chorus

riff 1
e-----------------------------------------------------------------------|
B-----------------------------------------------------------------------|
G-------------5-5--8/7------------5-5-----------------------------------|
D--5-5---7-7--5-5--8/7--5-5--7-7--5-5--5-5p3---3-5----------------------|
A--5-5---7-7--3-3--6/5--5-5--7-7--3-3--------5--------------------------|
E--3-3---5-5------------3-3--5-5----------------------------------------|

riff 2
e-----------------------------------------------------------------------|
B-----------------------------------------------------------------------|
G------------5-5--8/7---------------5-5-5-5-5-5-------------------------|
D--5-5--7-7--5-5--8/7----5-5---7-7--5-5-5-5-5-5-------------------------|
A--5-5--7-7--3-3--6/5----5-5---7-7--3-3-3-3-3-3-------------------------|
E--3-3--5-5--------------3-3---5-5--------------------------------------|
                                    pm  .......
Repeate chorus as needed

end with:
e---------------------------------|
B---------------------------------|
G-------------5-------------------|
D--5-5---7-7--5-------------------|
A--5-5---7-7--3-------------------|
E--3-3---5-5----------------------|

Repeate Intro & Chorus.


Thats as far as i got. Im still working on the solo.
Hope you enjoy it.
Comments