3 Doors Down - Right Where I Belong Chords & Tabs

 

Right Where I Belong Chords & Tabs

3 Doors Down Chords & Tabs

Version: 2 Type: Tab 0 ratings
1 star 2 stars 3 stars 4 stars 5 stars
comments

Right Where I Belong Tab

Tabbed by: David
Email: Goldwolf1218@aol.com

Tuning: EADGBE

This is pretty correct, I figured this out in a relatively short amount of time, though, 
please make corrections as they are needed.

Intro (repeat 2x)
e|---------------------------------------------------------------------------|
B|---------------------------------------------------------------------------|
G|---------------------------------------------------------------------------|
D|------------------------------------------------5--------------------------|
A|--0-0-3-5-5b6r5-3p0-3p0-3-0-0-3-0-0-3-5-5b6r5-3-5--------------------------|
E|------------------------------------------------3--------------------------|

Verse (repeat as needed)
e|---------------------------------------------------------------------------|
B|---------------------------------------------------------------------------|
G|---------------------------------------------------------------------------|
D|---5-7---5-7---5-7---------------------------------------------------------|
A|-0-----0-----0-----0-3/5-0-5/6---------------------------------------------|
E|---------------------------------------------------------------------------|

e|---------------------------------------------------------------------------|
B|---------------------------------------------------------------------------|
G|---------------------------------------------------------------------------|
D|---5-7---5-7---5-7---------------------------------------------------------|
A|-0-----0-----0-----0-3-5-6-5-3~~-------------------------------------------|
E|---------------------------------------------------------------------------|
[ Tab from: http://www.guitartabs.cc/tabs/0-9/3_doors_down/right_where_i_belong_tab_ver_2.html ]
e|---------------------------------------------------------------------------|
B|---------------------------------------------------------------------------|
G|-------------------7b9r7---5-----------------------------------------------|
D|---5-7---5-7---5-7-------7---7-5-3~~---------------------------------------|
A|-0-----0-----0-------------------------------------------------------------|
E|---------------------------------------------------------------------------|

Chorus (repeat as needed)
e|---------------------------------------------------------------------------|
B|---------------------------------------------------------------------------|
G|-------2--2-------------------2--2-----------------------------------------|
D|-------2--2--5--5--8/7--------2--2--5--5--5--------------------------------|
A|-5--5--0--0--3--3--6/5--5--5--0--0--3--3--3--5b6r5p3--3s5~~----------------|
E|-3--3-------------------3--3-----------------------------------------------|

e|---------------------------------------------------------------------------|
B|---------------------------------------------------------------------------|
G|-------2--2-------------------2--2-----------------------------------------|
D|-------2--2--5--5--6/5--5--5--2--2--5--5--5--5--5--------------------------|
A|-5--5--0--0--3--3--8/7--3--3--0--0--3--3--3--3--3--------------------------|
E|-3--3----------------------------------------------------------------------|

Bridge (Strum Lightly)
e|---------------------------------------------------------------------------|
B|---------------------------------------------------------------------------|
G|---------------------------------------------------------------------------|
D|--7----------7----------7----------7---------------------------------------|
A|--7----------7----------7----------7---------------------------------------|
E|--5----------5----------5----------5---------------------------------------|

Thats pretty much all of it except the solo, I'm still working on that. Have fun!
Comments