3 Doors Down - Not Enough Chords & Tabs

 

Not Enough Chords & Tabs

3 Doors Down Chords & Tabs

Version: 3 Type: Bass Tab 0 ratings
1 star 2 stars 3 stars 4 stars 5 stars
comments

Not Enough Bass Tab

Artist: 3 Doors Down
Song: Not Enough
Album: Better Life
Tabbed By: J.D. (jairodorado@netzero.net)

Intro

G|---------|---------|---------|---------|
D|---------|---------|---------|---------|
A|---------|---------|---------|---------|
E|-5-8-1-3-|-5-8-1-3-|-5-8-1-3-|-5-8-1-3-|

G|---------|---------|---------|---------|
D|---------|---------|---------|---------|
A|---------|---------|---------|---------|
E|-5-8-1-3-|-5-8-1-3-|-5-8-1-3-|-5-8-1---|

(Heavy Part)

G|----------|---------|----------|---------|
D|----------|---------|----------|---------|
A|----------|---------|----------|---------|
E|-3-3-3-3-5|-8-1-1-3-|-3-3-3-3-5|-8-1-1-3-|

G|----------|---------|----------|-------------|
D|----------|---------|----------|-------------|
A|----------|---------|----------|-------------|
E|-3-3-3-3-5|-8-1-1-3-|-3-3-3-3-5|-8-1-1-3/\(3)|<-This means, when sliding dowm, stop @ 3)

Verse

G|---------|---------|---------|---------|
D|---------|---------|---------|---------|
A|---------|---------|---------|---------|
E|-5-8-1-3-|-5-8-1-3-|-5-8-1-3-|-5-8-1-3-|

Chorus
[ Tab from: http://www.guitartabs.cc/tabs/0-9/3_doors_down/not_enough_btab_ver_3.html ]
G|----------|---------|----------|---------|
D|----------|---------|----------|---------|
A|----------|---------|----------|---------|
E|-3-3-3-3-5|-8-1-1-3-|-3-3-3-3-5|-8-1-1-3-|

G|----------|---------|----------|-------------|
D|----------|---------|----------|-------------|
A|----------|---------|----------|-------------|
E|-3-3-3-3-5|-8-1-1-3-|-3-3-3-3-5|-8-1-1-3/\(3)|

Verse 2

G|---------|---------|---------|---------|
D|---------|---------|---------|---------|
A|---------|---------|---------|---------|
E|-5-8-1-3-|-5-8-1-3-|-5-8-1-3-|-5-8-1-3-|

G|---------|---------|---------|---------|
D|---------|---------|---------|---------|
A|---------|---------|---------|---------|
E|-5-8-1-3-|-5-8-1-3-|-5-8-1-3-|-5-8-1-3-|

Chorus 2

G|----------|---------|----------|---------|
D|----------|---------|----------|---------|
A|----------|---------|----------|---------|
E|-3-3-3-3-5|-8-1-1-3-|-3-3-3-3-5|-8-1-1-3-|

G|----------|---------|----------|---------|
D|----------|---------|----------|---------|
A|----------|---------|----------|---------|
E|-3-3-3-3-5|-8-1-1-3-|-3-3-3-3-5|-8-1-1-3-|

Repeat Verse 2

Repeat Chorus 2

Repeat Chorus 2

Ending

G|---------|---------|---------|---------|
D|---------|---------|---------|---------|
A|---------|---------|---------|---------|
E|-5-8-1-3-|-5-8-1-3-|-5-8-1-3-|-5-8-1~--|
Comments