3 Doors Down - Never Will I Break Chords & Tabs

 

Never Will I Break Chords & Tabs

3 Doors Down Chords & Tabs

Version: 4 Type: Tab

Never Will I Break Tab

   
Here is finaly a complete version of the songthat I tabt out in one night with a little 
of my good friend Coffee! I donīt think that itīs 100% correct, but it sounds very nice 
me! So, here it is:

Standart Tuning (E A D G B E)

Intro I:

Guitar I: Clean
e:-----------------0-----0-00000-------------------------------------------|
B:-----------------x-----x-xxxxx-------------------------------------------|
G:--13-----14--13--5-----5/77777-13---14--13---17-16--14-16-11-11-11/13-13-|
D:---x------x---x--x-----x-xxxxx--x----x---x----x--x---x--x--x--x--x--x--x-|
A:--11-----12--11--3-----3/55555-11---12--11---15-14--12-14--9--9--9/11-11-|
E:---0------0---0-----------------0----0---0----0--0---0--0--0--0--0--0--0-|

Intro II:

Guitars I&II: Distortion

e:----------------------------------------------------------|
B:----------------------------------------------------------|
G:----------------------------------------------------------|
D:--------5----------------------------5--------------------| x2 End with
A:----5h7---7-------5--------7-----5h7---7-------5----------|    a low E5
E:--0-----------5h7---7--5h7-----0-----------5h7---7--5h7-3-|    Chord.


Verse I:

Guitar I: Distortion

Intro II x4


Guitar II: Distortion with Wah Wah

e:-----------------------------     e:---------------------------------|
B:--15-----------------15------     B:----------8---------8---------10-|
G:--17b19--------------16b18--- x1  G:--9---7h9----9--7h9----9--7h9----| x2
D:-----------------------------     D:---------------------------------|
A:-----------------------------     A:---------------------------------|
E:-----------------------------     E:---------------------------------|


Pre Chorus I:

Guitars I&II: Distortion
e:--------------------------|
B:--------------------------|
G:--5-5---------5-5---7-7---|
D:--5-5---7-7---5-5---7-7---|
A:--3-3---7-7---3-3---5-5---|
E:--3-3---5-5---3-3---5-5---|


Chorus I:

Guitar I: Distortion

e:------------------------------------|
B:------------------------------------|
G:----------------------5-5--5/7-7777-| x4
D:--2-----2----22-2--22-5-5--5/7-7777-|
A:--2-----2----22-2--22-3-3--3/5-5555-|
E:--0-----0----00-0--00-3-3--3/5-5555-|
               ..    ..


Guitar II: Distortion

e:-----------------------------0--0--0-0000--|
B:-----------------------------x--x--x-xxxx--|
G:--13---------13------14--13--5--5--5/7777--| x4
D:---x----------x-------x---x--x--x--x-xxxx--|
A:--11---------11------12--11--3--3--3/5555--|
E:---0----------0-------0---0----------------|

Verse2:

Guitar I: Distortion
[ Tab from: http://www.guitartabs.cc/tabs/0-9/3_doors_down/never_will_i_break_tab_ver_4.html ]
e:------------------------------------------------------------|
B:------------------------------------------------------------|
G:------------------------------------------------------------|
D:--------5----------------------------5----------------------| x2
A:----5h7---7-------5--------7-----5h7---7---5h7p5-5----------|
E:--0-----------5h7---7--5h7-----0--------------------7-5-0-3-|

the rest is the same as Verse I


Prechorus2:

Same as Prechorus I


Chorus2:

Same as Chorus I


Interlude I:

Guitar I: Distortion
e:-------------------------------------------------------------------------|
B:-------------------------------------------------------------------------|
G:-------------------------------------------------------------------------|
D:----------------------------------------------------------------------10-|
A:--------11h12p11---------11-12----------11h12p11----11-12-14-11-12-14----|
E:-0---0-----------12-0--0---------0---0-----------12----------------------|

--------------------------------------------------------------------------|
--------------------------------------------------------------------------|
--------------------------------------------------------------------------| x2
--------------------------------------------------------------------------|
--------11h12p11---------11-12----------11h12p11---14-12-11--14-12-11-----|
-0---0-----------12-0--0---------0---0-----------12--------12--------12\--|

Guitar II: Distortion

e:----------------------------------------------------------------------------|
B:-------------------------------------------------------------------------13-|
G:---------13h14p13-----------13-14----------13h14p13-----13-14-16-13-14-16---|
D:-14--14-----------14-14--14--------14---14----------14----------------------|
A:----------------------------------------------------------------------------|
E:----------------------------------------------------------------------------|

e:----------------------------------------------------------------------------|
B:----------------------------------------------------------------------------|
G:--------13h14p13-----------13-14----------13h14p13----16-14-13---16-14-13---|
D:-14--14----------14-14--14--------14--14----------14----------14---------14-|
A:----------------------------------------------------------------------------|
E:----------------------------------------------------------------------------|
                                    x2

Interlude II:

Guitar I: Clean with a lot of Reverb and Distortion at the end

Intro I x1


Interlude II:

Guitar II: Distortion

Just play a low E5 Powerchord once...you can easily figure out when to strum it if you 
to the CD...

Chorus III:

Guitar I: Chorus I x8

Guitar II: Chorus I x8

End:

Guitar I: Interlude I x1

Guitar II: Interlude I x 1

Thats it! I hope you can figure the song out with that! Enjoy!