3 Doors Down - Loser Chords & Tabs

 

Loser Chords & Tabs

3 Doors Down Chords & Tabs

Version: 6 Type: Tab 0 ratings
1 star 2 stars 3 stars 4 stars 5 stars
comments

Loser Tab

Transcribed by Aimeemannboy aka The Bachelor
Song:Loser(solo)
Artist:3 Doors Down

|----------------------------|-----------------------|----------------------------------|
|-------------3-3h5--5h6-5---|---------3h5-5h6-8-8---|----------------------------------|
|-5h7-5-3-5h7--------------7-|-5-3-5h7---------------|----------------------------------|
|----------------------------|-----------------------|----------------------------------|
|----------------------------|-----------------------|----------------------------------|
|----------------------------|-----------------------|----------------------------------|
[ Tab from: http://www.guitartabs.cc/tabs/0-9/3_doors_down/loser_tab_ver_6.html ]
|-6-5-3-5-3--------------------------------------------------------------------|----------|
|-----------6-8-6-4-6-4-3-3h4--------------------------------------------------|----------|
|-----------------------------5-3-3h5-3--------------------------------3h5-3---|----------|
|--------------------------------------3-3/5-8p5-8p5-3-5-3-3/5-8p5-8p5-------5-|----------|
|------------------------------------------------------------------------------|----------|
|------------------------------------------------------------------------------|----------|

|---------------5-6---6-6---1-|--------|
|-----------6-8---------------|--------|
|-------5-7-------------------|--------|
|---5-8-----------------------|--------|
|-----------------------------|--------|
|-----------------------------|--------|
Comments