3 Doors Down - Loser Chords & Tabs

 

Loser Chords & Tabs

3 Doors Down Chords & Tabs

Version: 4 Type: Tab 0 ratings
1 star 2 stars 3 stars 4 stars 5 stars
comments

Loser Tab

   
"Loser"
3 doors down
DarkKarma17@aol.com

     F#           Dsus2
|---2-------x--------------------|
|---2-------2--------------------|
|---3-------3--or---------------|
|---4-------0-------7-----------|
|---4-------0-------5-----------|
|---2-------x--------------------|

Also on intro
|--2---2----0----0--|
|----2---2-----3--3-|
|---------------------|
|---------------------|
|---------------------|
|---------------------|

[ Tab from: http://www.guitartabs.cc/tabs/0-9/3_doors_down/loser_tab_ver_4.html ]
Verse chords F# x4 Dsus2 (strum and ring)
Every 2nd one play this in between...
|--------------|
|--------------|
|--------------|
|--------------|
|---0h2p0----|
|--------------|

ever 4th one, on the one after the above riff
|--0---0---0-|
|----3---3----|
|--------------|
|--------------|
|--------------|
|--------------|

Chorus
Em, F#, D, Em 
Harmonics played on 2nd and 3rd fret E and A string, in between the F# and the D

Bridge
F#, A, C, B, E, F, F# over and over, with a couple palm mutes here and there

that's it...but don't let me make it look oversimplified and thus make you not want to play it...it's a really cool song, the bridge is fun to play
Comments