3 Doors Down - Loser Chords & Tabs

 

Loser Chords & Tabs

3 Doors Down Chords & Tabs

Version: 3 Type: Tab 1 rating
1 star 2 stars 3 stars 4 stars 5 stars
comments

Loser Tab

   
This is completely right caz my guitar teacher listened to the song
and figured it out.......so here it is:
[ Tab from: http://www.guitartabs.cc/tabs/0-9/3_doors_down/loser_tab_ver_3.html ]
N=strum down V= strum up
X= cover up those specific strings or all of them strings and strum
Intro
  F#7sus4                      Dsus2      Repeat 4x
1-------------0--------|-------------0--------|
2-----0---------0------|-----3---------3------|
3-------3---------3----|-------2---------2----|
4---------4---------4--|--0------0---------0--|
5----------------------|----------------------|
6--2-------------------|----------------------|
Verse
     F#                 D       Repeat 8x
1--2----------xx-|--2--------xx-|
2--2----------xx-|--3--------xx-|
3--3----------xx-|--2--------xx-|
4--4----------xx-|--0--------xx-|
5--4----------xx-|--x--------xx-|
6--2----------xx-|--x--------xx-|
   n - nv     nv    n - vnn   
Chorus
        E               F#m               D            E   repeat 4x
1--0----------xx-|--2----------xx-|--2----------xx-|--0----------xx-|
2--0----------xx-|--2----------xx-|--3----------xx-|--0----------xx-|
3--1----------xx-|--2----------xx-|--2----------xx-|--1----------xx-|
4--2----------xx-|--4----------xx-|--0----------xx-|--2----------xx-|
5--2----------xx-|--4----------xx-|--x----------xx-|--2----------xx-|
6--0----------xx-|--2----------xx-|--x----------xx-|--0----------xx-|
   n - nv     nv    n - vnn    nv    n - nv     nv    n -- vnn   nv
(end)solo section
                                        Repeat 8x
1--------------------|------------------|
2--------------------|------------------|
3--------------------|------------------|
4-------2-----5---4--|------------------|
5--4----0-----3---2--|--2--2----3---4---|
6--2-----------------|--0--0----1---2---|
Comments