3 Doors Down - Loser Chords & Tabs

 

Loser Chords & Tabs

3 Doors Down Chords & Tabs

Version: 3 Type: Bass Tab 0 ratings
1 star 2 stars 3 stars 4 stars 5 stars
comments

Loser Bass Tab

Loser - 3 Doors Down
Tabbed by Daniel Mancha.
e - mail :mudddann@hotmail.com


INTRO:

G:-----------------------------------------
D:-----------------------------------------
A:----------5~~~~~~------------------------
E:---2~~~~~~-------------------------------

VERSES:
[ Tab from: http://www.guitartabs.cc/tabs/0-9/3_doors_down/loser_btab_ver_3.html ]
G:---------------|------------------
D:---------------|------------------
A:----5-5555-----|----5-5555--0-2-0-
E:-222-----------|-222--------------

CHORUS:

G:-----------------------------------------
D:-----------------------------------------
A:----------5-555-555----------------------
E:-000h2-222---------0-000-00--------------

BRIDGE:

G:-----------------------------------------
D:-----------------------------------------
A:--0-3-2----------------------------------
E:-2-----0-0-1-2---------------------------

That's all.
Nice & Easy.
Comments