3 Doors Down - Life Of My Own Chords & Tabs

 

Life Of My Own Chords & Tabs

3 Doors Down Chords & Tabs

Version: 3 Type: Tab 0 ratings
1 star 2 stars 3 stars 4 stars 5 stars
comments

Life Of My Own Tab

   
Date: August 15 2000
Author/Artist: 3 Doors Down
Title: Life of my own
Album: The Better Life
Transcribed by: Eric Bergevin
E-mail address: eric.bergevin@home.com


Intro

(Note: there's another guitar playing in the background too, but I can't figure it out.
Another possibility is that they added an effect to the guitar. If anybody knows
e-mail me, please.)

E-----------------------------------|
B------0----------------------------|
G----------------------------0------|
D----2-----2-0---------4---4----4---|
A--------3-------3/5-----5-----5--5-|
E--0--------------------------------|
repeat 4x before drums come in.
[ Tab from: http://www.guitartabs.cc/tabs/0-9/3_doors_down/life_of_my_own_tab_ver_3.html ]
Just repeat this through out the whole song except when the electric guitar comes in.


Electric guitar

 Right before starting the power chords
 do a quick palm mute slide on the low E string: 11\2

   E5          G5     D5
E--x----x----x--x--x--x----x--x--x----x--x--|
B--x----x----x--x--x--x----x--x--x----x--x--|
G--x----x----x--x--x--7----7--x--7----7--7--|
D--x----x----x--5--x--7----7--x--7----7--7--|
A--2----2----2--5--x--5----5--x--5----5--5--|
E--0----0----0--3--x--x----x--x--x----x--x--|

play this 8 times, but on the 8th time do a palm mute on the
E5 and G5 and let the D5 ring.


If you have any questions or corrections please feel free to e-mail me.
eric.bergevin@home.com

Thanks to Alistair Hill for getting me started
in all this guitar stuff!
Comments