3 Doors Down - Let Me Go Chords & Tabs

 

Let Me Go Chords & Tabs

3 Doors Down Chords & Tabs

Version: 1 Type: Tab 0 ratings
1 star 2 stars 3 stars 4 stars 5 stars
comments

Let Me Go Tab

Band- 3 Doors Down
Song- Let Me Go

[Intro & Verse]
guitar 1
E]--------------------------------------|
B]--------------------------------------|
G]--4h6-6-6----4-4-4----2-2-2---4-4-4---|
D]--4h6-6-6----4-4-4----2-2-2---4-4-4---|
A]--4-4-4-4----2-2-2----0-0-0---2-2-2---|
E]--------------------------------------|
guitar 2 with guitar 1 figure timing out yourself
E]--------------------------------------|
B]-------------5------------------------|
G]----4-4\6------6----------------------|
D]--------------------------------------|
A]--------------------------------------|
E]--------------------------------------|

alternate verse (every 2nd or 4th time im not too sure)
E]--------------------------------------|
B]--------------------------------------|
G]--------------------------------------|
D]---4--7-------------------------------|
A]---4--7-------------------------------|
E]---2--5-------------------------------|

[ Tab from: http://www.guitartabs.cc/tabs/0-9/3_doors_down/let_me_go_tab.html ]
[Chorus]
Guitar1
E]------------------------------------|
B]------------------------------------|
G]----4---6---2-----------------------|
D]-2--4---6---2-----------------------|
A]-2--2---4---0-----------------------|
E]-0----------------------------------|

Guitar 2

E]--------------------------------------|
B]--------------------------------------|
G]--6--4--2--4--------------------------|
D]--6--4--2--4--------------------------|
A]--4--2--0--2--------------------------|
E]--4--2--0--2--------------------------|

after chorus
E]--------------------------------------|
B]--5--5--------9-----------------------|
G]----6---4--6--------------------------|
D]--------------------------------------|
A]--------------------------------------|
E]--------------------------------------|

Bridge

E]------------------------------------|
B]------------------------------------|
G]--6-6-6----9-9-9----4-4-4---4-4-4---|
D]--6-6-6----9-9-9----4-4-4---4-4-4---|
A]--4-4-4----7-7-7----2-2-2---2-2-2---|
E]------------------------------------|
bend all notes up half step
E]--------------------------------------|
B]-20-16--------------------------------|
G]---------16---19-16-------------------|
D]----------------------17--------------|
A]--------------------------------------|
E]--------------------------------------|

This is my updated version from ver.1.I added the 2nd guitar too.ENJOY!!!
Comments