3 Doors Down - Landing In London Chords & Tabs

 

Landing In London Chords & Tabs

3 Doors Down Chords & Tabs

Version: 6 Type: Tab 0 ratings
1 star 2 stars 3 stars 4 stars 5 stars
comments

Landing In London Tab

   
Artist:	3 Doors Down
Song:	Landing in London
Album:	Seventeen Days
Tabber:	ultimae_crow

I was lookin over my tabs and i realized i messed up the intro in this one,in the
beginning u dont use the b string its the G string. I added the solo and changed
some other things. Hope u Like it.

h=hammer on

C Dsus2 Em
0   0   0
1   3   0
0   2   0
2   0   2
3   0   2
0   0   0

e----------------------------------------------------------|
B----------------------------------------------------------|
G-------5--4--2h4-0--------5--4--2-2h4--------5--4--2h4-0--|
D----------------------------------------------------------|
A---0-2----------------0-2----------------0-2--------------|
E-0------------------0------------------0------------------|

e-------------------------------------------------------------------|
B----------------------------------0--------------------------------|
G-------2--------4---------------2---2-------------0-------0--------|
D--------------0---0-----------2-------2-------0h2-------2---2------|
A---0-2------2-------2----2b-0-----------0-0h2---------2-------2----|
E-0--------3-----------3-----------------------------0-----------0--|

e-----------------------------------------------------------------|
B----------------------------------------------------0------------|
G---------0-------0---------0-------4--------------2---2----------|
D-----0h2-------2---2-------------0---0----------2-------2--------|
A-0h2---------2-------2---2-----2-------2---2b-0-----------0------|
E-----------0-----------0-----3-----------3-----------------------|

e-----------------------------------------------------------|
B-----------------------------------------------------------|
G---------0-------0---------------0-------0---------0-------|
D-----0h2-------2---2---------0h2-------2---2---------------|
A-0h2---------2-------2---0h2---------2-------2---2---------|
E-----------0-----------0-----------0-----------0-----------|

e------------------------------------------------------------------|
B------------------------------------------------------------------|
G----5--4--2------9--11--12--------0---------------0-------0-------|
D--------------0-----------------2---2---------0h2-------2---2-----|
A-3----------------------------2-------2---0h2---------2-------2---|
E----------------------------0-----------0-----------0-----------0-|

e----------------------------------------------------------|
B----------------------------------------------------------|
G----0-----5--4--2-----9--11--12--------0---------------0--|
D-------------------0-----------------2---2---------0h2----|
A-2-----3---------------------------2-------2---0h2--------|
E---------------------------------0-----------0------------|

e-------------------|
B-------------------|
G-------0---------0-|
D-----2---2---------|
A---2-------2---2---|
E-0-----------0-----|
[ Tab from: http://www.guitartabs.cc/tabs/0-9/3_doors_down/landing_in_london_tab_ver_6.html ]
		                   C   Dsus2			       
And when the night falls in around me,	    I don't think ill make it through

e--------------------------------------------|
B--------------------------------------------|
G------0---------------0---------0---------0-|
D----2---2---------0h2---------2---2---------|
A--2-------2---0h2-----------2-------2---2---|
E0-----------0-------------0-----------0-----|

			          C    Dsus2			       
I'll use your light to guide the way,	    Cause all I think about is you


Play Intro Again

		             C	  Dsus2				  Em
And all these days I spend away,	I'll make up for this I swear
		             C	  Dsus2				  Em
I need your love to hold me up,         When its all too much to bear
		                  C   Dsus2			       Em
And when the night falls in around me,	    I don't think ill make it through
			          C    Dsus2			       Em
I'll use your light to guide the way,	    Cause all I think about is you

Solo:
E|-------------------------------------------------------------------------------------|
B|--------------------------8-10--10/12-------------8-8-10-10--12-13-12---10-12/13\12--|
G|-------------------7h9-11---------------9-9-11-11------------------------------------|
D|----------7-9---10-------------------------------------------------------------------|
A|---7h9-10----------------------------------------------------------------------------|
E|-------------------------------------------------------------------------------------|

E|---------------12-12-12-12---12-10-8-10-8-7-8-7-5-7-5-0--------------------|
B|-----10--12/13-------------------------------------------------------------|
G|---------------------------------------------------------------------------|
D|---------------------------------------------------------------------------|
A|---------------------------------------------------------------------------|
E|---------------------------------------------------------------------------|


		             C	  Dsus2				  Em
And all these days I spend away,	I'll make up for this I swear
		             C	  Dsus2				  Em
I need your love to hold me up,         When its all too much to bear
		                  C   Dsus2			       Em
And when the night falls in around me,	    I don't think ill make it through
			          C    Dsus2
I'll use your light to guide the way,	    Cause all I think about is you

Outro:
e-----------------------------------------------------------------------0---|
B----------------------------------------------------------------0------0---|
G-------5--4--2h4-0--------5--4--2-2h4--------5--4--2h4-0----------0----0---|
D--------------------------------------------------------------------2--2---|
A---0-2----------------0-2----------------0-2----------------0-2--------0---|
E-0------------------0------------------0------------------0----------------|
Comments