3 Doors Down - Landing In London Chords & Tabs

 

Landing In London Chords & Tabs

3 Doors Down Chords & Tabs

Version: 2 Type: Tab 1 rating
1 star 2 stars 3 stars 4 stars 5 stars
comments

Landing In London Tab

TABBER: AndiM


 Doors Down  - Landing in London - 




  Intro: Verse 1:
-------------------------------------------------------------------------------------------------------
-----------1-----0------------------1-----0------------------1-----0-----------------------------------
---------0-----0-----0-2h4-0------0-----0-----0-2-2h4------0-----0-----0-2h4-0--------0----------------
-------2-----2-----2------------2-----2-----2------------2-----2-----2--------------2---2--------------
----------------------------------------------------------------------------------2-------2------------
----0------------------------0------------------------0------------------------0------------0----------
    ..


---------------------------------------------------------------------------
------------0--------------------0---------------------------------------
----------0---0----------------2---2---2-------------0--------0----------
--------0-------0------------2-------2-----------0h2--------2---2-------
----------------------232-0----------------0h2------------2-------2--------
-----3------------3------------------------------------0------------0-------
..


[ Tab from: http://www.guitartabs.cc/tabs/0-9/3_doors_down/landing_in_london_tab_ver_2.html ]
------------------------------------------------------------------------------------------------------
--------------------------------------------0---------------------0-----------------------------------
-----------0--------0----------0----------0---0-----------------2---2---2------------0---------0------
-------0h2--------2---2------2---2------0-------0-------------2-------2----------0h2---------2---2----
-0h2------------2-------2------------------------------232-0----------------0h2------------2-------2--
--------------0------------0----------3------------3------------------------------------0------------0
           . 



  Verse 2:
-------------------------------------------------------------------0-----2-----3----------------------
--------------------------------------------1-----0--------------3-----3-----3-----3------------------
-----------0--------0----------0----------0-----0-----0-2------2-----2-----2-----2----------0---------
-------0h2--------2---2------2---2------2-----2-----2-------0-----------------------------2---2-------
-0h2------------2-------2----------2-3--------------------------------------------------2-------2-----
--------------0------------0---------------------------------------------------------0------------0---
             



-------------------------------------------------------------------0-----2-----3----------------------
--------------------------------------------1-----0--------------3-----3-----3-----3------------------
-----------0--------0----------0----------0-----0-----0-2------2-----2-----2-----2----------0---------
-------0h2--------2---2------2---2------2-----2-----2-------0-----------------------------2---2-------
-0h2------------2-------2----------2-3--------------------------------------------------2-------2-----
--------------0------------0---------------------------------------------------------0------------0---
            



the rest is played like Verse 2 (or use even chords) except of "Well L.A. is getting kind...." which is 

played like Verse 1 ! 

"232" in Verse 1 means a pull of the 5th String.   


I hope evrything is correct....

have fun with this great song!

Andi Mack
Comments