3 Doors Down - Landing In London Chords & Tabs

 

Landing In London Chords & Tabs

3 Doors Down Chords & Tabs

Version: 11 Type: Tab 1 rating
1 star 2 stars 3 stars 4 stars 5 stars
comments

Landing In London Tab

artist - 3 doors down
album - 17 days
tabber - threedoors1776 (rodney overturff)
standard tuning

intro
|----------------------------------------------------------------|
|----------------------------------------------------------------|
|----5--4--2h4-------5--4--2-2h4-----5--4--2h4-------0-----------|
|---2-2--2-----5----2-2--2----------2-2--2------5---2-2----------|
|--2---2--2--------2---2--2--------2---2--2--------2---2---------|
|-0---------------0---------------0---------------0-----0--------|

verse 1
|----------------------------------------------------------------|
|----0--------------0--------------------------------------------|
|-----0------------2-----------0---0----------0----0-----0-------| x 2
|---0--0----------2--2------0h2---2-2------0h2----2-2---2-2------|
|--2------2b3b2--0----0--0h2-----2---2--0h2------2---2-2---2-----|
|-3-----3-----------------------0-----0---------0-----0----------|

|---------------0--2--3------------------------------------------|
|----1--0------3-3--3--------------------------------------------|
|---0-0--0-2--2---2--2------0----------0---0-----0---------------| x 2
|--2---2--2--0-------------2-2------0h2---2-2---2-2--------------|
|-3-----------------------2---2--0h2-----2---2-2---2-------------|
|------------------------0-----0--------0-----0------------------|

chorus  1
|--0------0------0---------------------------------0---2---------|
|--1------1------0---------------------------------1---3---------|
|--0------2------0----0-----------0-----0-----0----0---2---------|
|--2------2------2---2-2-------0h2-----2-2---2-2---2---0---------|
|--3------0------2--2---2---0h2-------2---2-2---2--3-------------|
|----------------0-------0-----------0-----0---------------------|
 listen for strumming

 after chorus
|----------------------------------------------------------------|
|----------------------------------------------------------------|
|----5--4--2h4-------5--4--2-2h4-----5--4--2h4-------0-----------|
|---2-2--2-----5----2-2--2----------2-2--2-----5----2-2----------|
|--2---2--2--------2---2--2--------2---2--2--------2---2---------|
|-0---------------0---------------0---------------0-----0--------|

verse 2
|----------------------------------------------------------------|
|----0--------------0--------------------------------------------|
|-----0------------2-----------0---0----------0----0-----0-------| x 2
|---0--0----------2--2------0h2---2-2------0h2----2-2---2-2------|
|--2------2b3b2--0----0--0h2-----2---2--0h2------2---2-2---2-----|
|-3-----3-----------------------0-----0---------0-----0----------|
[ Tab from: http://www.guitartabs.cc/tabs/0-9/3_doors_down/landing_in_london_tab_ver_11.html ]
pre chorus
|-0---0---0---0---0---2---0---0----------------------------------|
|-1---1---0---0---1---3---0---0----------------------------------|
|-0---2---0---0---0---2---0---0----------------------------------|
|-2---2---2---2---2---0---2---2----------------------------------|
|-3---0---2---2---3-------2---2----------------------------------|
|---------0---0-----------0---0----------------------------------|

chorus  2
|-0---0---0---0---0---2---0---0----------------------------------|
|-1---1---0---0---1---3---0---0----------------------------------|
|-0---2---0---0---0---2---0---0----------------------------------|
|-2---2---2---2---2---0---2---2----------------------------------|
|-3---0---2---2---3-------2---2----------------------------------|
|---------0---0-----------0---0----------------------------------|

solo
|----------------------------------------------------------------|
|---------------------7h8--8/10--3/5-5-5-5/7-7-7-7/8-8-8-8/10----|
|------------------7h9-------------------------------------------|
|------5h7-7/9--7h9----------------------------------------------|
|---5h7----------------------------------------------------------|
|--0-------------------------------------------------------------|

|----------------------------------------------------------------|
|-10-10/12--12b13b12--10--12b13b12--10/12-12/17-17b-17b-17b------|
|----------------------------------------------------------------|
|----------------------------------------------------------------|
|----------------------------------------------------------------|
|----------------------------------------------------------------|

|----------------------------------------------------------------|
|-17-15\13-13h15-13\12-12h13-12----------------------------------|
|-------------------------------14-14\12-11----------------------|
|-------------------------------------------12-------------------|
|----------------------------------------------------------------|
|----------------------------------------------------------------|

pre chorus(figure strumming)
|-0---0---0---0---0---2---0---0----------------------------------|
|-1---1---0---0---1---3---0---0----------------------------------|
|-0---2---0---0---0---2---0---0----------------------------------|
|-2---2---2---2---2---0---2---2----------------------------------|
|-3---0---2---2---3-------2---2----------------------------------|
|---------0---0-----------0---0----------------------------------|

chorus  
|-0---0---0---0---0---2------------------------------------------|
|-1---1---0---0---1---3------------------------------------------|
|-0---2---0---0---0---2------------------------------------------|
|-2---2---2---2---2---0------------------------------------------|
|-3---0---2---2---3----------------------------------------------|
|---------0---0--------------------------------------------------|

|----------------------------------------------------------0-----|
|----------------------------------------------------------0-----|
|----5--4--2h4-------5--4--2-2h4-----5--4--2h4-------0-----0-----|
|---2-2--2-----5----2-2--2----------2-2--2-----5----2-2----2-----|
|--2---2--2--------2---2--2--------2---2--2--------2---2---2-----|
|-0---------------0---------------0---------------0-----0--0-----|

pretty easy song. enjoy and comment!!!
Comments