3 Doors Down - Landing In London Chords & Tabs

 

Landing In London Chords & Tabs

3 Doors Down Chords & Tabs

Version: 10 Type: Tab 0 ratings
1 star 2 stars 3 stars 4 stars 5 stars
comments

Landing In London Tab

   
Tabbed by:sandrok
Email:sandrok71@yahoo.com
Here's the tab according to the 'book'.
Tuning:Standard
  Em(addb6)
E|-----------------------------------|--------------------------------|
B|-----------------------------------|--------------------------------|
G|----------5------4--------2^4------|---------5-------4-----2-2^4---|
D|-------2-----2------2------------5-|------2-----2------2------------|
A|----2----------2-------2-----------|---2----------2------2----------|
E|-0---------------------------------|-0------------------------------|

e|-----------------------------------|
B|-----------------------------------|
G|----------5--------4------2^4------|
D|-------2-----2-------2---------5---|
A|----2-----------2-------2----------|
E|-0---------------------------------|
           
[ Tab from: http://www.guitartabs.cc/tabs/0-9/3_doors_down/landing_in_london_tab_ver_10.html ]
             I woke  up to-day  in   Lon-don
e|-------------------0---------------|--------------------------------|
B|-----------------------------------|------------0-------------------|
G|-----------0-----------------------|----------------0---------------|
D|-------2---------------------------|--------0----------0------2b----|
A|----2----------2-------------------|-----2--------------------------|
E|-0---------------------------------|--3--------------------3--------|
         As the plane was touching down
e|------------------------------------|-------------------------------|
B|-----------0------------------------|-------------------------------|
G|--------2-------------------------0-|---------0-------------------0-|
D|-----2---------2-------------0^2----|------2-----2------------0^2---|
A|--0----------------0----0^2---------|---------------2-----0^2-------|
E|------------------------------------|-0----------------0------------|
Comments