3 Doors Down - Landing In London Chords & Tabs

 

Landing In London Chords & Tabs

3 Doors Down Chords & Tabs

Version: 1 Type: Tab 2 ratings
1 star 2 stars 3 stars 4 stars 5 stars
comments

Landing In London Tab

   
TABBER: Fenderbender1413

hey this tab is awesome no one else had the solo and all tab to .

Em
|--------------------------------------
|-------1-----0------------------------
|---------------------2h4--0----------
|---2-----2-----2---------------------
|--2-------2-----2---------------------
|-0-----------------------------------

Em
|--------------------------------------
|-------1-----0------------------------
|------------------------2--2h4--------
|----2----2------2---------------------
|---2-------2------2-------------------
|-0------------------------------------

Em
|--------------------------------------
|-------1-----0------------------------
|---------------------2h4--0----------
|---2-----2-----2---------------------
|--2-------2-----2---------------------
|-0-----------------------------------

First Verse

...

Em                       G                       Am                       Em
|-----------------------------------------------------------------------------------------------------
|--------------------------0--------------------0----1------------------------------------------------
|-------0---------------0---------------------2---2-------------0-------0---------------0-------------
|----2----2----------0-------0--------------2---------------0h2-------2-------------0h2---------------
|---2-------------------------------2b--0---------------0h2---------2-----2----0h2--------------------
|-0---------0-----3-------------3---------------------------------0----------0------------------------



Em                       G                       Am                       Em
|-----------------------------------------------------------------------------------------------------
|--------------------------0----------------------0----1------------------------------------------------
|-------0---------------0-----------------------2---2-----------0-------0---------------0-------------
|----2----2----------0-------0--------------2---------------0h2-------2-------------0h2---------------
|---2-------------------------------2b--0---------------0h2---------2-----2----0h2--------------------
|-0---------0-----3-------------3---------------------------------0----------0------------------------

..

Em                       C                        D                      Em
|--------------------------------------------------0-----2-----3---------------------------------------
|--------------------------1------0--------------2-----2-----2-----------------------------------------
|-------0--------0-------0---0------0----2-----3-----3-----3-----------0--------------0----------------
|-----2---2----2-------2-------2------2------0-----------------------2------------0h2------------------
|---2----------------3---------------------------------------------2-----2----0h2----------------------
|-0---------0----------------------------------------------------0----------0--------------------------

..

Em                       C                        D                      Em
|--------------------------------------------------0-----2-----3---------------------------------------
|--------------------------1------0--------------2-----2-----2-----------------------------------------
|-------0--------0-------0---0------0----2-----3-----3-----3-----------0--------------0----------------
|-----2---2----2-------2-------2------2------0-----------------------2------------0h2------------------
|---2----------------3---------------------------------------------2-----2----0h2----------------------
|-0---------0----------------------------------------------------0----------0--------------------------

First Chorus
When the night falls......

Em                  C (strum)          Am (strum)         Em (strum)
|----------------------------------------------------------------------------------------------
|---------------------1------------------1-----------------------------------------------------
|-------0-------0-----0------------------2----------------0----------0--------------0----------
|-----2---2---2-------2------------------2----------------2--------2-----------0h2-------------
|---2-----------------3-----------------------------------2------2-----2---0h2-----------------
|-0---------0---------------------------------------------0----0---------0---------------------


[ Tab from: http://www.guitartabs.cc/tabs/0-9/3_doors_down/landing_in_london_tab.html ]
Em                  C (strum)          Am (strum)         Em (strum)
|----------------------------------------------------------------------------
|---------------------1------------------1-----------------------------------
|-------0-------0-----0------------------2----------------0------------------
|-----2---2---2-------2------------------2----------------2------------------
|---2-----------------3-----------------------------------2------------------
|-0---------0---------------------------------------------0------------------

Em
|--------------------------------------
|-------1-----0------------------------
|---------------------2h4--0----------
|---2-----2-----2---------------------
|--2-------2-----2---------------------
|-0-----------------------------------

Em
|--------------------------------------
|-------1-----0------------------------
|------------------------2--2h4--------
|----2----2------2---------------------
|---2-------2------2-------------------
|-0------------------------------------

Em
|--------------------------------------
|-------1-----0------------------------
|---------------------2h4--0-----------
|---2-----2-----2----------------------
|--2-------2-----2---------------------
|-0------------------------------------

Second Verse

Well L.A's gettin...

Em                       G                       Am                       Em
|-----------------------------------------------------------------------------------------------------
|--------------------------0--------------------0----1------------------------------------------------
|-------0---------------0---------------------2---2-------------0-------0---------------0-------------
|----2----2----------0-------0--------------2---------------0h2-------2-------------0h2---------------
|---2-------------------------------2b--0---------------0h2---------2-----2----0h2--------------------
|-0---------0-----3-------------3---------------------------------0----------0------------------------

.

Em                       G                       Am                       Em
|-----------------------------------------------------------------------------------------------------
|--------------------------0--------------------0----1------------------------------------------------
|-------0---------------0---------------------2---2-------------0-------0---------------0-------------
|----2----2----------0-------0--------------2---------------0h2-------2-------------0h2---------------
|---2-------------------------------2b--0---------------0h2---------2-----2----0h2--------------------
|-0---------0-----3-------------3---------------------------------0----------0------------------------




|:--------------------------------------------------------------------------------------------------------------
|:---------------------5/7-7/8-8/10-10h12---3/5-5-5-5-5-5-5-5/7-7-7-7-7-7-7-7/8-8-8-8-8-8-8-8/10-10-10-10-10-10-
|:--------------------------------------------------------------------------------------------------------------
|:----------5h7-7/9---------------------------------------------------------------------------------------------
|:------5h7-----------------------------------------------------------------------------------------------------
|:--------------------------------------------------------------------------------------------------------------

|:---------------------------------------10h112-12-12-12-12--
|:------10h12-13^12-10-12h13h12-10--10h12--------------------
|:-----------------------------------------------------------
|:-----------------------------------------------------------
|:-----------------------------------------------------------
|:-----------------------------------------------------------

|:-12h10--10-------------------------------------
|:------13--13-12h13^12-10h12h10-----------------
|:-----------------------------------------------
|:-----------------------------------------------
|:-----------------------------------------------
|:-----------------------------------------------



Ending
Em
|--------------------------------------
|------1-----0------------------------
|---------------------2h4--0----------
|---2-----2-----2---------------------
|--2-------2-----2---------------------
|-0-----------------------------------

Em
|--------------------------------------
|-------1-----0------------------------
|------------------------2--2h4--------
|----2----2------2---------------------
|---2-------2------2-------------------
|-0------------------------------------

Em
|------------------------------------------------0--
|------1-----0----------------------------------0--
|---------------------2h4--0-------------0-------0--
|---2-----2-----2----------------------2---2-----2--
|--2-------2-----2-------------------2-------2---2--
|-0--------------------------------0-------------0--

Comments