3 Doors Down - Landing In London Chords & Tabs

 

Landing In London Chords & Tabs

3 Doors Down Chords & Tabs

Version: 1 Type: Bass Tab 0 ratings
1 star 2 stars 3 stars 4 stars 5 stars
comments

Landing In London Bass Tab

   
-------------------------------------------------------------------------------
		Landing in London - 3 doors down
-------------------------------------------------------------------------------

Tabbed By : JayGerman
e-mail: jhrauch@gmx.de

Tuning: (1:08) Verse
G|-----------|---------.---|-----------|------------|------------|-------------|
D|-----------|-------------|-----------|------------|------------|-------------|
A|-3*--32--0*|-------------|-3*--32-5*-|R-----------|--02--------|--------20*--|
E|-----------|--30*--030*--|-----------|---0*--030*-|----0*---0*-|----3*-------|


G|------------|-----------|--------------|
D|------------|-----------|--------------|
A|-02---------|-----20*---|-02-----------|
E|---0*---30*-|-3*-3------|---0*--030*---|

[ Tab from: http://www.guitartabs.cc/tabs/0-9/3_doors_down/landing_in_london_btab.html ]
"All These Days i spend away..."(2:06)
                       G|--------------|----------------|---------------|-------------------|
Chorus                 D|--------------|-5h7b-----------|---------------|----7--------------|
                       A|-3--33--32--0-|----------------|-3--33--32--5*-|-5h7-7p5-----------|
                       E|--------------|------0*---030*-|---------------|---------0*---030*-|

                       G|--------------|----------------|---------------|-R-|
                       D|--------------|----------------|---------------|-R-|
                       A|-3--33--32--0*|--02------------|-3--33--32--5*-|-R-|
                       E|--------------|------0*---030*-|---------------|-R-|


 (2:52)           Solo
G|---------------|------------------|-----------------|-----------------|---------------|
D|---------------|------------------|-----------------|-----------------|----7----------|
A|---------------|-3-33--32-0-00-02-|-----------------|--3-33--32-5-55--|-5h7-7p5-------|
E|--0*----030*---|------------------|-0*-0*-030-0*-00-|-----------------|-------0*-0*-0*|



Repeat chorus then rest for the end





| /  slide up
| \  slide down
| h  hammer-on
| p  pull-off
| ~  vibrato
| +  harmonic
| x  Mute note
Comments