3 Doors Down - Its Not Me Chords & Tabs

 

Its Not Me Chords & Tabs

3 Doors Down Chords & Tabs

Version: 2 Type: Tab 0 ratings
1 star 2 stars 3 stars 4 stars 5 stars
comments

Its Not Me Tab

Band- 3 Doors Down
Song- Its Not Me

Standard tuning

Intro/Verse(played clean):

e-----------------------------------|
B-------------0---------------------|
G----------------0------------------|
D---------2---------2---------------|
A------2----------------------------|
E---0-------------------------------|

Fills:

1)

e---0--------------------------|
B------0-----------------------|
G---------0--------------------|
D------------------------------|
A------------------------------|
E------------------------------|

2)

e---(5)---(7)---(5)---------|    Note: These are harmonics.
B---(5)---(7)---(5)---------|    For those of you who don't know
G---(5)---(7)---(5)---------|    harmonics can be played by
D---(5)---(7)---(5)---------|    holding your finger over the fret bar
A---(5)---(7)---(5)---------|    of the numbered fret, don't press
E---(5)---(7)---(5)---------|    down, just hold over.

3)

e----------0------------|
B---0--------0----------|
G------0--------0-------|
D-----------------------|
A-----------------------|
E-----------------------|

Chorus:

e--------------------------------------|
B--------------------------------------|
G-------5---7--9-------5---2---2--0----|
D---2---5---7--9---2---5---2---2--0----|
A---2---3---5--7---2---3---0---0--x----|
E---0--------------0--------------3----|
[ Tab from: http://www.guitartabs.cc/tabs/0-9/3_doors_down/its_not_me_tab_ver_2.html ]
e--------------------------------------|
B--------------------------------------|
G-------5---7---9-------5---2---5------|
D---2---5---7---9---2---5---2---5------|
A---2---3---5---7---2---3---0---3------|
E---0---------------0------------------|

Breakdown:

e---------------------------|
B---------------------------|
G------0----0----0----0-----|
D---2----2----2----2--------|
A---------------------------|
E---------------------------|
Repeat until solo.

Solo:

e----------------------------------|
B---------------7h8--7-------------|
G---------7h9-----------7---9------|
D---7h9----------------------------|
A----------------------------------|
E----------------------------------|

e-------------------------------------------|
B---------------7h8--8h10---8---------------|
G---------7h9--------------------7---9------|
D---7h9-------------------------------------|
A-------------------------------------------|
E-------------------------------------------|

e---------------------------------------------|
B---------------7h8---10---8---7--------------|
G---------7h9------------------------7h9------|
D---7h9---------------------------------------|
A---------------------------------------------|
E---------------------------------------------|
That should be close enough and if you wanna go nuts
anf make your own solo, its in the key of Em.

Final Chorus goes twice and ends on this:

e------------|
B------------|
G-------5----|
D---2---5----|
A---2---3----|
E---0--------|
Comments