3 Doors Down - Its Not Me Chords & Tabs

 

Its Not Me Chords & Tabs

3 Doors Down Chords & Tabs

Version: 1 Type: Bass Tab 0 ratings
1 star 2 stars 3 stars 4 stars 5 stars
comments

Its Not Me Bass Tab

 -------------------------------------------------------------------------------
			     Itīs not me - 3 doors down
-------------------------------------------------------------------------------

Tabbed By : JayGerman
e-mail: jhrauch@gmx.de

Tuning:standard



    Verse
G|---||------------|---------------|4 times 
D|---||------------|---------------|
A|---||---0h2/5----|---0h2/5-------|
E|-3-||-0--------3-|-0---------5---|
[ Tab from: http://www.guitartabs.cc/tabs/0-9/3_doors_down/its_not_me_btab.html ]
    Chorus
G|----------------|----------------|--------------|--------------|
D|----------------|----------------|--------------|--------------|
A|----3--0h2\5----|----3--0h2/5----|---3--0h2/5---|----3--0h2/5*-|
E|-0------------0-|-0-----------5--|-0----------0-|-0------------|



After Chorus

G|------------|-----------|------------|---------|
D|------------|-----------|------------|---------|
A|---0h2/5----|---0h2/5---|---0h2/5----|---0h2/5-|
E|-0--------3-|-0-------5-|-0--------3-|-0-------|

Repeat Verse
  
Repeat Chorus


Bridge
G|---------------------|---------|2 times
D|---------------------|---------|
A|---------------------|---------|
E|-0--0--0---0-0-0-3-3-|-5--5--5-|



   Solo 
       3times         4th time play
G|----------------||----------------|
D|----------------||----------------|
A|----3--0h2-0--3-||----3--0h2--5*--|
E|-0--------------||-0--------------|



Repeat Chorus 2 times
Comments