3 Doors Down - Here Without You Chords & Tabs

 

Here Without You Chords & Tabs

3 Doors Down Chords & Tabs

Version: 7 Type: Tab 1 rating
1 star 2 stars 3 stars 4 stars 5 stars
comments

Here Without You Tab

   
-----------------------------------------------------------------------------
                     3 Doors Down  Here Without You
-----------------------------------------------------------------------------

Tabbed By:  Chase Nichols
Email:  sirbones10@yahoo.com
Tuning:  down  step

You can use a capo on this song but I play it without one on an electric,
so this is the tab without using a capo.

Intro/Verse

Eb-----------------|-----------------|-----------------|-----------------|
Bb-------3------2--|-----2---3-------|-----------------|---------2-------|
Gb-----4---4-------|-4-----4---4-----|-------0---------|----2------2-----|
Db---4-------4-----|---4---------4---|-----0---0-------|--2---2------2---|
Ab-2---------------|---------------2-|---2-------2--0--|---------------0-|
Eb-----------------|-----------------|-3---------------|-----------------|

Eb-----------------|-----------------|-----------------|-----------------|
Bb--------3-----2--|-----2---3-------|-------2------3--|------2----3/5---|
Gb------4---4------|-4-----4---4-----|-----2---2-------|-2------2--------|
Db----4-------4----|---4---------4---|---2-------2-----|---2-------------|
Ab--2--------------|---------------2-|-0---------------|-----------------|
Eb-----------------|-----------------|-----------------|-----------------|

Repeat x2


Pre-Chorus/Verse

Eb-----------------|-----------------|-----------------|-----------------|
Bb-------3------2--|-----2---3-------|-----------------|---------2-------|
Gb-----4---4-------|-4-----4---4-----|-------0---------|----2------2-----|
Db---4-------4-----|---4---------4---|-----0---0-------|--2---2------2---|
Ab-2---------------|---------------2-|---2-------2--0--|---------------0-|
Eb-----------------|-----------------|-3---------------|-----------------|


Chorus

Eb-------0------2--|---0-----3-2-0---|---------------5-|---3---2---0-----|
Bb-----3---3-------|-3---3---------3-|--------2--------|-2---2---2---2---|
Gb---2-------2-----|-------2---------|------2---2------|-----------------|
Db-0---------------|-----------------|----2-------2----|-----------------|
Ab-----------------|-----------------|-0---------------|-----------------|
Eb-----------------|-----------------|-----------------|-----------------|

Eb--------------0--|-----0-----------|-----------------|-----------------|
Bb-------3---------|-3-----3---3-----|-----------------|--------2--------|
Gb-----4---4-------|---4-----4-------|-------0---------|----2-----2------|
Db---4-------4-----|-----------------|-----0---0-------|--2---2-----2----|
Ab-2---------------|-----------------|---2-------2-0---|--------------0--|
Eb-----------------|-----------------|-3---------------|-----------------|

Repeat x1


Verse

Eb-----------------|-----------------|-----------------|-----------------|
Bb-------3------2--|-----2---3-------|-------2------3--|------2----3/5---|
Gb-----4---4-------|-4-----4---4-----|-----2---2-------|-2------2--------|
Db---4-------4-----|---4---------4---|---2-------2-----|---2-------------|
Ab-2---------------|---------------2-|-0---------------|-----------------|
Eb-----------------|-----------------|-----------------|-----------------|

Eb-----------------|-----------------|-----------------|-----------------|
Bb-------3------2--|-----2---3-------|-----------------|--------2--------|
Gb-----4---4-------|-4-----4---4-----|-------0---------|---2------2------|
Db---4-------4-----|---4---------4---|-----0---0-------|-2---2------2----|
Ab-2---------------|---------------2-|---2-------2-0---|--------------0--|
Eb-----------------|-----------------|-3---------------|-----------------|

Repeat x2


Chorus

Eb-------0------2--|---0-----3-2-0---|--------------5--|---3---2---0-----|
Bb-----3---3-------|-3---3---------3-|-------2---------|-2---2---2---2---|
Gb---2-------2-----|-------2---------|-----2---2-------|-----------------|
Db-0---------------|-----------------|---2-------2-----|-----------------|
Ab-----------------|-----------------|-0---------------|-----------------|
Eb-----------------|-----------------|-----------------|-----------------|

Eb--------------0--|-----0-----------|-----------------|-----------------|
Bb-------3---------|-3-----3---3-----|-----------------|--------2--------|
Gb-----4---4-------|---4-----4-------|-------0---------|----2-----2------|
Db---4-------4-----|-----------------|-----0---0-------|--2---2-----2----|
Ab-2---------------|-----------------|---2--------2-0--|--------------0--|
Eb-----------------|-----------------|-3---------------|-----------------|

Repeat x1


Bridge
[ Tab from: http://www.guitartabs.cc/tabs/0-9/3_doors_down/here_without_you_tab_ver_7.html ]
Eb-2---2---2---2---|--2---2---2-2-2--|--2---2---2---2--|--2---2---2-2-2--|
Bb-3---3---3---3---|--3---3---3-3-3--|--3---3---3---3--|--3---3---3-3-3--|
Gb-4---4---4---4---|--4---4---4-4-4--|--2---2---2---2--|--2---2---2-2-2--|
Db-4---4---4---4---|--4---4---4-4-4--|--0---0---0---0--|--0---0---0-0-0--|
Ab-2---2---2---2---|--2---2---2-2-2--|--0---0---0---0--|--0---0---0-0-0--|
Eb-2---2---2---2---|--2---2---2-2-2--|-----------------|-----------------|
   D   D   D   U      D   U   D D U     D   D   D   U     D   U   D D U

Eb--0---0---0---0--|--0---0---0-0-0--|--3---3---3---3--|--3---3---3-3-3--|
Bb--2---2---2---2--|--2---2---2-2-2--|--3---3---3---3--|--3---3---3-3-3--|
Gb--2---2---2---2--|--2---2---2-2-2--|--4---4---4---4--|--4---4---4-4-4--|
Db--2---2---2---2--|--2---2---2-2-2--|--5---5---5---5--|--5---5---5-5-5--|
Ab--0---0---0---0--|--0---0---0-0-0--|--5---5---5---5--|--5---5---5-5-5--|
Eb-----------------|-----------------|--3---3---3---3--|--3---3---3-3-3--|
    D   D   D   U     D   U   D D U     D   D   D   U     D   U   D D U

Eb--2---2---2---2--|--2---2---2-2-2--|--2---2---2---2--|--2---2---2-2-2--|
Bb--3---3---3---3--|--3---3---3-3-3--|--3---3---3---3--|--3---3---3-3-3--|
Gb--4---4---4---4--|--4---4---4-4-4--|--2---2---2---2--|--2---2---2-2-2--|
Db--4---4---4---4--|--4---4---4-4-4--|--0---0---0---0--|--0---0---0-0-0--|
Ab--2---2---2---2--|--2---2---2-2-2--|--0---0---0---0--|--0---0---0-0-0--|
Eb--2---2---2---2--|--2---2---2-2-2--|-----------------|-----------------|
    D   D   D   U     D   U   D D U     D   D   D   U     D   U   D D U

Eb--0---0---0---0--|--0---0---0-0-0--|--3---3---3---3--|--3---3---3-3-3--|
Bb--2---2---2---2--|--2---2---2-2-2--|--3---3---3---3--|--3---3---3-3-3--|
Gb--2---2---2---2--|--2---2---2-2-2--|--4---4---4---4--|--4---4---4-4-4--|
Db--2---2---2---2--|--2---2---2-2-2--|--5---5---5---5--|--5---5---5-5-5--|
Ab--0---0---0---0--|--0---0---0-0-0--|--5---5---5---5--|--5---5---5-5-5--|
Eb-----------------|-----------------|--3---3---3---3--|--3---3---3-3-3--|
    D   D   D   U     D   U   D D U     D   D   D   U     D   U   D D U

Eb--3---3---3---3--|--3---3---3-3-3--|
Bb--3---3---3---3--|--3---3---3-3-3--|      D=DOWNSTROKE
Gb--4---4---4---4--|--4---4---4-4-4--|	    U=UPSTROKE
Db--5---5---5---5--|--5---5---5-5-5--|
Ab--5---5---5---5--|--5---5---5-5-5--|
Eb--3---3---3---3--|--3---3---3-3-3--|
    D   D   D   U     D   U   D D U


Chorus

Eb-------0------2--|---0-----3-2-0---|--------------5--|---3---2---0-----|
Bb-----3---3-------|-3---3---------3-|-------2---------|-2---2---2---2---|
Gb---2-------2-----|-------2---------|-----2---2-------|-----------------|
Db-0---------------|-----------------|---2-------2-----|-----------------|
Ab-----------------|-----------------|-0---------------|-----------------|
Eb-----------------|-----------------|-----------------|-----------------|

Eb--------------0--|-----0-----------|-----------------|-----------------|
Bb-------3---------|-3-----3---3-----|-----------------|--------2--------|
Gb-----4---4-------|---4-----4-------|-------0---------|---2------2------|
Db---4-------4-----|-----------------|-----0---0-------|-2---2------2----|
Ab-2---------------|-----------------|---2-------2-0---|--------------0--|
Eb-----------------|-----------------|-3---------------|-----------------|

Repeat x2


End Chorus
Eb-------0------2--|---0-----3-2-0---|--------------5--|---3---2---0-----|
Bb-----3---3-------|-3---3---------3-|-------2---------|-2---2---2---2---|
Gb---2-------2-----|-------2---------|-----2---2-------|-----------------|
Db-0---------------|-----------------|---2-------2-----|-----------------|
Ab-----------------|-----------------|-0---------------|-----------------|
Eb-----------------|-----------------|-----------------|-----------------|

Eb--------------0--|-----0-----------|-----------------|-----------------|
Bb-------3---------|-3-----3---3-----|-----------------|--------2--------|
Gb-----4---4-------|---4-----4-------|-------0---------|---2------2------|
Db---4-------4-----|-----------------|-----0---0-------|-2---2------2----|
Ab-2---------------|-----------------|---2--------2-0--|--------------0-2|
Eb-----------------|-----------------|-3---------------|-----------------|
Comments