3 Doors Down - Here Without You Chords & Tabs

 

Here Without You Chords & Tabs

3 Doors Down Chords & Tabs

Version: 2 Type: Tab 13 ratings
1 star 2 stars 3 stars 4 stars 5 stars
comments

Here Without You Tab

   
    HERE WITHOUT YOU
                          Transcribed by Andrew Stewart
Email me ith qestions or comments at drtrider3456@hotmail.com

           G                   Bm                    D                    A
      3 x x x 0 x          x 2 4 4 3 x          x x 0 2 3 2          x 0 2 2 2 0

       G(type 2)
      3 2 0 0 0 3

 Capo 1

Intro
   Am                                 F                G
 
  Gtr I
|----------------|-----------------|----------------|------------------|
|--------1-----0-|-----0---1-------|----------------|----------0-------|
|------2---2-----|-2---------2-----|----------------|-------------0----|
|----2-------2---|---2---2-----2---|-------3--------|-------0-------0--|
|-0--------------|-----------------|---0-3---3-0----|-----2------------|
|----------------|---------------3-|-1-----------3--|-(3)--------------|


   Verse
    Am                                 G
||-----------------|-----------------|----------------|----------------|
||o--------1-----0-|-----0---1-------|--------0-----1-|-----0---1s3----|
||-------2---2-----|-2---------2-----|----------0-----|-0-----0--------|
||-----2-------2---|---2---2-----2---|------0-----0---|---0------------|
||o-0--------------|---------------0-|----2-----------|----------------|
||-----------------|-----------------|-3--------------|----------------|


  Am                                 F                G
                                                                          3x
|----------------|-----------------|----------------|---------------------||
|--------1-----0-|-----0---1-------|----------------|-------------0------o||
|------2---2-----|-2---------2-----|----------------|-------0--------0----||
|----2-------2---|---2---2-----2---|-------3--------|---------(0)------0--||
|-0--------------|-----------------|---0-3---3-0----|-----2--------------o||
|----------------|---------------3-|-1-----------3--|-(3)-----------------||


   Chorus
    Cadd2                               G
    Gtr I
||---------------0-|-(0)----0-1-0-----|----------------3-|-(3)---1---0-------|
||o--------3-------|------3-------3-1-|-(1)------0-------|---------------3---|
||-------0---0-----|------------------|------------0-----|-------------------|
||-----2-------2---|------------------|--------0-----0---|-----0---0---0-----|
||o-3--------------|------------------|------2-----------|-------------------|
||-----------------|------------------|--3---------------|-------------------|
|
|   Gtr III
||-----------------|------------------|------------------|-------------------|
||o----------------|------------------|------------------|-------------------|
||-----------------|------------------|------------------|-------------------|
||--6--------------|-(6)--------------|------------------|-------------------|
||o----------------|------------------|--6---------------|-(6)---------------|
||-----------------|------------------|------------------|-------------------|


  Am                                  F                G
  Gtr I
|----------------|------------------|----------------|-------------------||
|--------1-----3-|-(3)---1--3-1-0---|----------------|-----------0------o||
|------2---2-----|-----2----------2-|----------------|-------0------0----||
|----2-------2---|------------------|-------3--------|---------0------0--||
|-0--------------|------------------|---0-3---3-0----|-----2------------o||
|----------------|------------------|-1-----------3--|-(3)---------------||
|
| Gtr III
|----------------|------------------|----------------|-------------------||
|----------------|------------------|----------------|------------------o||
|----------------|------------------|----------------|-------------------||
|-8--------------|-(8)--------------|-6-----6-----1--|-(1)---------------||
|----------------|------------------|----------------|------------------o||
|----------------|------------------|----------------|-------------------||


   Verse
    Am
    Gtr I
||------------------|--------------------|
||o---------1-----0-|-------0----1-------|
||--------2---2-----|--2-----------2-----|
||------2-------2---|-----2---2------2---|
||o--0--------------|------------------0-|
||------------------|--------------------|
|
|   Gtr II
||------------------|--------------------|
||o-----------------|--------------------|
||---2--------------|-(2)----------------|
||---2--------------|-(2)----------------|
||o--0--------------|-(0)----------------|
||------------------|--------------------|
|
|   Gtr III
||------------------|--------------------|
||o-----------------|--------------------|
||------------------|--------------------|
||--11--------------|-13--------15-------|
||o-----------------|--------------------|
||------------------|--------------------|


  G
|------------------|-----------------------|
|---------0------1-|---------0----1s3------|
|-----------0------|---0-------0-----------|
|-------0-----0----|------0----------------|
|-----2------------|-----------------------|
|--3---------------|-----------------------|
|
|------------------|-----------------------|
|------------------|-----------------------|
|------------------|-----------------------|
|--5---------------|--(5)------------------|
|--5---------------|--(5)------------------|
|--3---------------|--(3)------------------|
|
|------------------|-----------------------|
|------------------|-----------------------|
|---------------13-|-(13)---11---10--------|
|-13---------------|------------------13---|
|------------------|-----------------------|
|------------------|-----------------------|


  1.
  Am                                       F                G
|-----------------|----------------------|----------------|-------------------||
|---------1-----0-|--------0----1--------|----------------|-----------0------o||
|------2----2-----|--2-------------2-----|----------------|-------0------0----||
|----2--------2---|-----2----2-------2---|-------3--------|---------0------0--||
|-0---------------|----------------------|---0-3---3-0----|-----2------------o||
|-----------------|--------------------3-|-1-----------3--|-(3)---------------||
|
|-----------------|----------------------|----------------|-------------------||
|-----------------|----------------------|----------------|------------------o||
|-2---------------|-(2)------------------|----------------|-------------------||
|-2---------------|-(2)------------------|-3-----3-----0--|-(0)---------------||
|-0---------------|-(0)------------------|-3-----3-----2--|-(2)--------------o||
|-----------------|----------------------|-1-----1-----3--|-(3)---------------||
|
|-----------------|----------------------|----------------|-------------------||
|-----------------|----------------------|----------------|------------------o||
|-----------------|----------------------|----------------|-------------------||
|-8------11-------|-13----11---13-11-8-6-|-4-----4-----1--|-(1)---------------||
|-----------------|----------------------|----------------|------------------o||
|-----------------|----------------------|----------------|-------------------||


  2.
  Am
  Gtr I
|------------------|----------------------|
|---------1------0-|---------0----1-------|
|------2----2------|---2------------2-----|
|----2--------2----|------2----2------2---|
|-0----------------|--------------------0-|
|------------------|----------------------|
|
| Gtr II
|------------------|----------------------|
|------------------|----------------------|
|-2----------------|----------------------|
|-2------10-----12-|-(12)---12---14-------|
|-0----------------|----------------------|
|------------------|----------------------|
|
| Gtr III
|         ~~           ~~~~~~~~~~~~~~~~~~~~
|---------9------8-|--(8)----8----6-------|
|------------------|------------------9---|
|------------------|----------------------|
|-8----------------|----------------------|
|------------------|----------------------|
|------------------|----------------------|


  F                   G
|-------------------|-------------------
|-------------------|------------0------
|-------------------|--------0------0---
|---------3---------|----------0------0-
|----0-3----3-0-----|------2------------
|--1-------------3--|--(3)--------------
|
|-------------------|-------------------
|-------------------|-------------------
|-------------------|-------------------
|-10-----10---------|-------------------
|---------------10--|-(10)--------------
|-------------------|-------------------
|
|~~~~~~~~~~~
|-------------------|-------------------
|--7------7---------|-------------------
|----------------8--|--(8)--------------
|-------------------|-------------------
|-------------------|-------------------
|-------------------|-------------------

[ Tab from: http://www.guitartabs.cc/tabs/0-9/3_doors_down/here_without_you_tab_ver_2.html ]
  Am
|-----------------|--------------------|
|---------1-----0-|-------0----1-------|
|-------2---2-----|--2-----------2-----|
|-----2-------2---|-----2---2------2---|
|--0--------------|------------------0-|
|-----------------|--------------------|
|
|-----------------|--------------------|
|-----------------|--------------------|
|--2--------------|-(2)----------------|
|--2--------------|-(2)----------------|
|--0--------------|-(0)----------------|
|-----------------|--------------------|
|
|-----------------|--------------------|
|-----------------|--------------------|
|-----------------|--------------------|
|-11--------------|-13--------15-------|
|-----------------|--------------------|
|-----------------|--------------------|


  G
|------------------|----------------------|
|---------0------1-|---------0----1s3-----|
|-----------0------|---0-------0----------|
|-------0-----0----|------0---------------|
|-----2------------|----------------------|
|--3---------------|----------------------|
|
|------------------|----------------------|
|------------------|----------------------|
|--0---------------|--(0)-----------------|
|--0---------------|--(0)-----------------|
|--2---------------|--(2)-----------------|
|--3---------------|--(3)-----------------|
|
|------------------|----------------------|
|------------------|----------------------|
|---------------13-|-(13)---11---10-------|
|-13---------------|------------------13--|
|------------------|----------------------|
|------------------|----------------------|


  Am
|------------------|----------------------|
|---------1------0-|---------0----1-------|
|------2----2------|---2------------2-----|
|----2--------2----|------2----2------2---|
|-0----------------|----------------------|
|------------------|--------------------3-|
|
|------------------|----------------------|
|------------------|----------------------|
|-2----------------|----------------------|
|-2------10-----12-|-(12)---12---14-------|
|-0----------------|----------------------|
|------------------|----------------------|
|
| Gtr IV
|         ~~           ~~~~~~~~~~~~~~~~~~~~
|---------9------8-|--(8)----8----6-------|
|------------------|------------------9---|
|------------------|----------------------|
|-8----------------|----------------------|
|------------------|----------------------|
|------------------|----------------------|


  F                   G
|-------------------|-------------------|
|-------------------|------------0------|
|-------------------|--------0------0---|
|---------3---------|----------0------0-|
|----0-3----3-0-----|------2------------|
|--1-------------3--|--(3)--------------|
|
|-------------------|-------------------|
|-------------------|-------------------|
|-------------------|-------------------|
|-10-----10---------|-------------------|
|---------------10--|-(10)--------------|
|-------------------|-------------------|
|
|~~~~~~~~~~~
|-------------------|-------------------|
|--7------7---------|-------------------|
|----------------8--|--(8)--------------|
|-------------------|-------------------|
|-------------------|-------------------|
|-------------------|-------------------|


   Chorus
    Cadd2
    Gtr I
||---------------0-|-(0)----0-1-0-----|
||o--------3-------|------3-------3-1-|
||-------0---0-----|------------------|
||-----2-------2---|------------------|
||o-3--------------|------------------|
||-----------------|------------------|
|
|   Gtr III
||-----------------|------------------|
||o----------------|------------------|
||-----------------|------------------|
||--6--------------|-(6)--------------|
||o----------------|------------------|
||-----------------|------------------|


  G
|-----------------3-|--(3)----1----0--------|
|-(1)------0--------|-------------------3---|
|------------0------|-----------------------|
|--------0-----0----|------0----0----0------|
|------2------------|-----------------------|
|--3----------------|-----------------------|
|
|----------------16-|-(16)---14---13--------|
|-------------------|------------------16---|
|-------------------|-----------------------|
|-------------------|-----------------------|
|--6----------------|-----------------------|
|-------------------|-----------------------|


  Am                                 F                G
  Gtr I
|-----------------|----------------|----------------|-------------------||
|---------1-----3-|-----1--3-1-0---|----------------|-----------0------o||
|-------2---2-----|-2------------2-|----------------|-------0------0----||
|-----2-------2---|---2------------|-------3--------|---------0------0--||
|--0--------------|----------------|---0-3---3-0----|-----2------------o||
|-----------------|----------------|-1-----------3--|-(3)---------------||
|
| Gtr III
|-----------------|----------------|----------------|-------------------||
|-11--------------|----------------|----------------|------------------o||
|-----------------|----------------|----------------|-------------------||
|-----------------|-6------8-------|-6-----6-----1--|-(1)---------------||
|-----------------|----------------|----------------|------------------o||
|-----------------|----------------|----------------|-------------------||


   Bridge
    Bm                           D
    Gtrs I, II
||--------------|--------------|-2----2--2-2-|-2-2--2--2-2---|
||o-3----3--3-3-|-3-3--3--3-3--|-3----3--3-3-|-3-3--3--3-3---|
||--4----4--4-4-|-4-4--4--4-4--|-2----2--2-2-|-2-2--2--2-2---|
||--4----4--4-4-|-4-4--4--4-4--|-0----0--0-0-|-0-0--0--0-0---|
||o-2----2--2-2-|-2-2--2--2-2--|-------------|---------------|
||--------------|--------------|-------------|---------------|


  A                            G
|-0----0--0-0-|-0-0--0--0-0--|-3----3--3-3-|-3-3--3--3-3----||
|-2----2--2-2-|-2-2--2--2-2--|-0----0--0-0-|-0-0--0--0-0---o||
|-2----2--2-2-|-2-2--2--2-2--|-0----0--0-0-|-0-0--0--0-0----||
|-2----2--2-2-|-2-2--2--2-2--|-0----0--0-0-|-0-0--0--0-0----||
|-0----0--0-0-|-0-0--0--0-0--|-2----2--2-2-|-2-2--2--2-2---o||
|-------------|--------------|-3----3--3-3-|-3-3--3--3-3----||


  G             G
|-3----3--3-3-|-3-3--3--3-3--|
|-0----0--0-0-|-0-0--0--0-0--|
|-0----0--0-0-|-0-0--0--0-0--|
|-0----0--0-0-|-0-0--0--0-0--|
|-2----2--2-2-|-2-2--2--2-2--|
|-3----3--3-3-|-3-3--3--3-3--|


   Out-Chorus
    Cadd2
    Gtr I
||---------------0-|-(0)----0-1-0-----|
||o--------3-------|------3-------3-1-|
||-------0---0-----|------------------|
||-----2-------2---|------------------|
||o-3--------------|------------------|
||-----------------|------------------|
|
|   Gtr III
||-----------------|------------------|
||o----------------|------------------|
||-----------------|------------------|
||--6--------------|-(6)--------------|
||o----------------|------------------|
||-----------------|------------------|
|
|   Gtr II
||-----------------|------------------|
||o----------------|------------------|
||--0--------------|-(0)--------------|
||--2--------------|-(2)--------------|
||o-3--------------|-(3)--------------|
||-----------------|------------------|


  G
|-----------------3-|--(3)----1----0-------|
|-(1)------0--------|-------------------3--|
|------------0------|----------------------|
|--------0-----0----|------0----0----0-----|
|------2------------|----------------------|
|--3----------------|----------------------|
|
|-------------------|----------------------|
|-------------------|----------------------|
|----------------13-|-(13)---11---10-------|
|-------------------|------------------13--|
|--6----------------|----------------------|
|-------------------|----------------------|
|
|-------------------|----------------------|
|-------------------|----------------------|
|-------------------|----------------------|
|--0----------------|--(0)-----------------|
|--2----------------|--(2)-----------------|
|--3----------------|--(3)-----------------|


  Am
  Gtr I
|------------------|-----------------------|
|---------1------3-|---------1---3--1--0---|
|------2----2------|---2-----------------2-|
|----2--------2----|------2----------------|
|-0----------------|-----------------------|
|------------------|-----------------------|
|
| Gtr III
|------------------|-----------------------|
|------------------|-----------------------|
|------------------|-----------------------|
|-8------11-----13-|-(13)---11--13-11-10-8-|
|------------------|-----------------------|
|------------------|-----------------------|
|
|------------------|-----------------------|
|------------------|-----------------------|
|-2----------------|--(2)------------------|
|-2----------------|--(2)------------------|
|-0----------------|--(0)------------------|
|------------------|-----------------------|


  Bm               G
                                      4x
|----------------|--------------------||
|----------------|-----------0-------o||
|----------------|-------0------0-----||
|-------3--------|---------0------0---||
|---0-3---3-0----|-----2-------------o||
|-1-----------3--|-(3)----------------||
|
|                                     4x
|----------------|--------------------||
|----------------|-------------------o||
|----------------|--------------------||
|-6-----6-----1--|-(1)----------------||
|----------------|-------------------o||
|----------------|--------------------||
|
|                                     4x
|----------------|--------------------||
|----------------|-------------------o||
|----------------|--------------------||
|-3-----3-----0--|-(0)----------------||
|-3-----3-----2--|-(2)---------------o||
|-1-----1-----3--|-(3)----------------||


 Outro
  Am
  Gtr I
   >
|-^0--------|-(0)----*|
|-^1--------|-(1)----*|
|-^2--------|-(2)----*|
|-^2--------|-(2)----*|
|-^0--------|-(0)----*|
|-----------|--------*|
|
| Gtr II
|  >
|--0--------|-(0)----*|
|--1--------|-(1)----*|
|--2--------|-(2)----*|
|--2--------|-(2)----*|
|--0--------|-(0)----*|
|-----------|--------*|
Comments