3 Doors Down - Here Without You Chords & Tabs

 

Here Without You Chords & Tabs

3 Doors Down Chords & Tabs

Version: 10 Type: Tab 0 ratings
1 star 2 stars 3 stars 4 stars 5 stars
comments

Here Without You Tab

   
3 Doors Down - Here Without You
Standard Tuning - (6)E (5)A (4)D (3)G (2)B (1)E
Numbers in Parenthesis are Sustained
The letters above each number are the note type (Q=Quarter, E=Eighth, and
So on)

- Harbinger



  Q  E E E E E E   E E E E E E E E   E E E E E E Q    +E  E E E E E E E
|----------------|-----------------|----------------|--------------------|
|--------2-----1-|-----1---2-------|----------------|--------------------|
|------3---3-----|-3-----3---3-----|----------------|-----------5--------|
|----3-------3---|---3---------3---|-------4--------|-------6-----6------|
|-1--------------|-----------------|---1-4---4------|-----6---6-----6----|
|----------------|---------------4-|-2---------6-4--|-(4)-------------4--|


  Q  E E E E E  E   E E  E E E E E E   Q  E E E E E E   E E E E E E +Q
|-----------------|------------------|----------------|------------------|
|-----------------|------------------|----------------|-----------4-(4)--|
|--------6--------|----------6-------|--------5-----6-|-----5---6--------|
|------8---8---10-|-8---10-8---8-----|------6---6-----|-6-----6----------|
|----8-------8----|---8----------8---|----6-------6---|---6--------------|
|-6---------------|----------------6-|-4--------------|------------------|


  Q  E E E E E  E   E E  E E E E E E   E E E E E E Q    +E  E E E E E E E
|-----------------|------------------|----------------|-------------------|
|-----------------|------------------|----------------|-------------------|
|--------6--------|----------6-------|----------------|-----------5-------|
|------8---8---10-|-8---10-8---8-----|-------4--------|-------6-----6-----|
|----8-------8----|---8----------8---|---1-4---4------|-----6---6-----6---|
|-6---------------|----------------4-|-2---------6-4--|-(4)-------------4-|


  Q  E E E E E  E   E E  E E E E E E   Q  E E E E E E   E E E E E E +Q
|-----------------|------------------|----------------|------------------|
|-----------------|------------------|----------------|-----------4-(4)--|
|--------6--------|----------6-------|--------5-----6-|-----5---6--------|
|------8---8---10-|-8---10-8---8-----|------6---6-----|-6-----6----------|
|----8-------8----|---8----------8---|----6-------6---|---6--------------|
|-6---------------|----------------6-|-4--------------|------------------|


  Q  E E E E E  E   E E  E E E E E E   E E E E E E Q    +E  E E E E E E E
|-----------------|------------------|----------------|-------------------|
|-----------------|------------------|----------------|-------------------|
|--------6--------|----------6-------|----------------|-----------5-------|
|------8---8---10-|-8---10-8---8-----|-------4--------|-------6-----6-----|
|----8-------8----|---8----------8---|---1-4---4------|-----6---6-----6---|
|-6---------------|----------------4-|-2---------6-4--|-(4)-------------4-|


  Q  E E E E E  E   E E  E E E E E E   Q  E E E E E E   E E E E E E +Q
|-----------------|------------------|----------------|------------------|
|-----------------|------------------|----------------|-----------4-(4)--|
|--------6--------|----------6-------|--------5-----6-|-----5---6--------|
|------8---8---10-|-8---10-8---8-----|------6---6-----|-6-----6----------|
|----8-------8----|---8----------8---|----6-------6---|---6--------------|
|-6---------------|----------------6-|-4--------------|------------------|


  Q  E E E E E  E   E E  E E E E E E   E E E E E E Q    +E  E E E E E E E
|-----------------|------------------|----------------|-------------------|
|-----------------|------------------|----------------|-------------------|
|--------6--------|----------6-------|----------------|-----------5-------|
|------8---8---10-|-8---10-8---8-----|-------4--------|-------6-----6-----|
|----8-------8----|---8----------8---|---1-4---4------|-----6---6-----6---|
|-6---------------|----------------4-|-2---------6-4--|-(4)-------------4-|


  Q  E E E E E E   E E E E E E E E   Q  E E E E E E   E E E E E E E E
|--------------1-|---------2-1-----|--------------4-|-----------------|
|--------4-2-----|-2-4-2-------4-2-|----------------|---7---6---4-----|
|------6-----1---|-------1---------|--------5-------|-5---5---5---5---|
|----6-----------|-----------------|------6---6-----|-----------------|
|-4--------------|-----------------|----6-------6---|-----------------|
|----------------|-----------------|-4--------------|---------------4-|


  Q  E E E E E E   E E E E E E E E   E E E E E E Q    +E  E E E E E E E
|----------------|-----------------|----------------|-------------------|
|----------------|-----------------|----------------|-------------------|
|--------6-----8-|---6---6---8-----|----------------|-----------5-------|
|------8---8-----|-8---8---8-------|-------4--------|-------6-----6-----|
|----8-------8---|-----------------|---1-4---4------|-----6---6-----6---|
|-6--------------|-------------6-4-|-2---------6-4--|-(4)-------------4-|


  Q  E E E E E E   E E E E E E E E   Q  E E E E E E   E E E E E E E E
|--------------1-|---------2-1-----|--------------4-|-----------------|
|--------4-2-----|-2-4-2-------4-2-|----------------|---7---6---4-----|
|------6-----1---|-------1---------|--------5-------|-5---5---5---5---|
|----6-----------|-----------------|------6---6-----|-----------------|
|-4--------------|-----------------|----6-------6---|-----------------|
|----------------|-----------------|-4--------------|---------------4-|


  Q  E E E E E E   E E E E E E E E   E E E E E E Q    +E  E E E E E E E
|----------------|-----------------|----------------|-------------------|
|----------------|-----------------|----------------|-------------------|
|--------6-----8-|---6---6---8-----|----------------|-----------5-------|
|------8---8-----|-8---8---8-------|-------4--------|-------6-----6-----|
|----8-------8---|-----------------|---1-4---4------|-----6---6-----6---|
|-6--------------|-------------6-4-|-2---------6-4--|-(4)-------------4-|


  Q  E E E E E  E   E E  E E E E E E   Q  E E E E E E   E E E E E E +Q
|-----------------|------------------|----------------|------------------|
|-----------------|------------------|----------------|-----------4-(4)--|
|--------6--------|----------6-------|--------5-----6-|-----5---6--------|
|------8---8---10-|-8---10-8---8-----|------6---6-----|-6-----6----------|
|----8-------8----|---8----------8---|----6-------6---|---6--------------|
|-6---------------|----------------6-|-4--------------|------------------|


  Q  E E E E E  E   E E  E E E E E E   E E E E E E Q    +E  E E E E E E E
|-----------------|------------------|----------------|-------------------|
|-----------------|------------------|----------------|-------------------|
|--------6--------|----------6-------|----------------|-----------5-------|
|------8---8---10-|-8---10-8---8-----|-------4--------|-------6-----6-----|
|----8-------8----|---8----------8---|---1-4---4------|-----6---6-----6---|
|-6---------------|----------------4-|-2---------6-4--|-(4)-------------4-|


  Q  E E E E E  E   E E  E E E E E E   Q  E E E E E E   E E E E E E +Q
|-----------------|------------------|----------------|------------------|
|-----------------|------------------|----------------|-----------4-(4)--|
|--------6--------|----------6-------|--------5-----6-|-----5---6--------|
|------8---8---10-|-8---10-8---8-----|------6---6-----|-6-----6----------|
|----8-------8----|---8----------8---|----6-------6---|---6--------------|
|-6---------------|----------------6-|-4--------------|------------------|


  Q  E E E E E  E   E E  E E E E E E   E E E E E E Q    +E  E E E E E E E
|-----------------|------------------|----------------|-------------------|
|-----------------|------------------|----------------|-------------------|
|--------6--------|----------6-------|----------------|-----------5-------|
|------8---8---10-|-8---10-8---8-----|-------4--------|-------6-----6-----|
|----8-------8----|---8----------8---|---1-4---4------|-----6---6-----6---|
|-6---------------|----------------4-|-2---------6-4--|-(4)-------------4-|


  Q  E E E E E  E   E E  E E E E E E   Q  E E E E E E   E E E E E E +Q
|-----------------|------------------|----------------|------------------|
|-----------------|------------------|----------------|-----------4-(4)--|
|--------6--------|----------6-------|--------5-----6-|-----5---6--------|
|------8---8---10-|-8---10-8---8-----|------6---6-----|-6-----6----------|
|----8-------8----|---8----------8---|----6-------6---|---6--------------|
|-6---------------|----------------6-|-4--------------|------------------|

[ Tab from: http://www.guitartabs.cc/tabs/0-9/3_doors_down/here_without_you_tab_ver_10.html ]
  Q  E E E E E  E   E E  E E E E E E   E E E E E E Q    +E  E E E E E E E
|-----------------|------------------|----------------|-------------------|
|-----------------|------------------|----------------|-------------------|
|--------6--------|----------6-------|----------------|-----------5-------|
|------8---8---10-|-8---10-8---8-----|-------4--------|-------6-----6-----|
|----8-------8----|---8----------8---|---1-4---4------|-----6---6-----6---|
|-6---------------|----------------4-|-2---------6-4--|-(4)-------------4-|


  Q  E E E E E E   E E E E E E E E   Q  E E E E E E   E E E E E E E E
|--------------1-|---------2-1-----|--------------4-|-----------------|
|--------4-2-----|-2-4-2-------4-2-|----------------|---7---6---4-----|
|------6-----1---|-------1---------|--------5-------|-5---5---5---5---|
|----6-----------|-----------------|------6---6-----|-----------------|
|-4--------------|-----------------|----6-------6---|-----------------|
|----------------|-----------------|-4--------------|---------------4-|


  Q  E E E E E E   E E E E E E E E   E E E E E E Q    +E  E E E E E E E
|----------------|-----------------|----------------|-------------------|
|----------------|-----------------|----------------|-------------------|
|--------6-----8-|---6---6---8-----|----------------|-----------5-------|
|------8---8-----|-8---8---8-------|-------4--------|-------6-----6-----|
|----8-------8---|-----------------|---1-4---4------|-----6---6-----6---|
|-6--------------|-------------6-4-|-2---------6-4--|-(4)-------------4-|


  Q  E E E E E E   E E E E E E E E   Q  E E E E E E   E E E E E E E E
|--------------1-|---------2-1-----|--------------4-|-----------------|
|--------4-2-----|-2-4-2-------4-2-|----------------|---7---6---4-----|
|------6-----1---|-------1---------|--------5-------|-5---5---5---5---|
|----6-----------|-----------------|------6---6-----|-----------------|
|-4--------------|-----------------|----6-------6---|-----------------|
|----------------|-----------------|-4--------------|---------------4-|


  Q  E E E E E E   E E E E E E E E   E E E E E E Q    +E  E E E E E E E
|----------------|-----------------|----------------|-------------------|
|----------------|-----------------|----------------|-------------------|
|--------6-----8-|---6---6---8-----|----------------|-----------5-------|
|------8---8-----|-8---8---8-------|-------4--------|-------6-----6-----|
|----8-------8---|-----------------|---1-4---4------|-----6---6-----6---|
|-6--------------|-------------6-4-|-2---------6-4--|-(4)-------------4-|


  S E. +Q   S E. S S S S   +Q   S E. +E  S S S S S S   S E. +Q   S E. S S S S
|---1--(1)----1----1-1---|--------1--(1)-1-----1-1---|---1--(1)----1----1-1---|
|---2--(2)----2----2-2---|--------2--(2)-2-----2-2---|---2--(2)----2----2-2---|
|---3--(3)----3----3-3---|--------3--(3)-3-----3-3---|-1---------1----1---1---|
|-3---------3----3-----3-|-(3)--3----------3-3-----3-|------------------------|
|-1---------1----1-----1-|-(1)--1----------1-1-----1-|-4---------4----4-----4-|
|-1---------1----1-----1-|-(1)--1----------1-1-----1-|-4---------4----4-----4-|


  +Q   S E. +E  S S S S S S
|---------------------------|
|--------6--(6)-6-----6-6---|
|--------6--(6)-6-----6-6---|
|------6--------6---6---6---|
|-(4)--4----------4-4-----4-|
|-(4)--4----------4-4-----4-|


  S E. +Q   S E. S S S S   +Q   S E. +E  S S S S S S
|------------------------|----------------------------|
|---4--(4)----4----4-4---|--------4--(4)-4-----4-4----|
|---5--(5)----5----5-5---|--------5--(5)-5-----5-5----|
|-6---------6----6---6---|------6--------6---6---6----|
|-6---------6----6-----6-|-(6)--6----------6-6-----6--|
|-4---------4----4-----4-|-(4)--4----------4-4-----4--|


  S E. +Q   S E. S S S S   +Q   S E. +E  S S S S S S   S E. +Q   S E. S S S S
|---2--(2)----2----2-2---|--------2--(2)-2-----2-2---|---1--(1)----1----1-1---|
|---2--(2)----2----2-2---|--------2--(2)-2-----2-2---|---2--(2)----2----2-2---|
|---3--(3)----3----3-3---|--------3--(3)-3-----3-3---|---3--(3)----3----3-3---|
|-4---------4----4-----4-|-(4)--4----------4-4-----4-|-3---------3----3-----3-|
|-4---------4----4-----4-|-(4)--4----------4-4-----4-|-1---------1----1-----1-|
|-2---------2----2-----2-|-(2)--2----------2-2-----2-|-1---------1----1-----1-|


  +Q   S E. +E  S S S S S S
|--------1--(1)-1-----1-1---|
|--------2--(2)-2-----2-2---|
|--------3--(3)-3-----3-3---|
|-(3)--3----------3-3-----3-|
|-(1)--1----------1-1-----1-|
|-(1)--1----------1-1-----1-|


  S E. +Q   S E. S S S S   +Q   S E. +E  S S S S S S
|---1--(1)----1----1-1---|----------------------------|
|---2--(2)----2----2-2---|--------6--(6)-6-----6-6----|
|-1---------1----1---1---|--------6--(6)-6-----6-6----|
|------------------------|------6--------6---6---6----|
|-4---------4----4-----4-|-(4)--4----------4-4-----4--|
|-4---------4----4-----4-|-(4)--4----------4-4-----4--|


  S E. +Q   S E. S S S S   +Q   S E. +E  S S S S S S   S E. +Q   S E. S S S S
|------------------------|---------------------------|---2--(2)----2----2-2---|
|---4--(4)----4----4-4---|--------4--(4)-4-----4-4---|---2--(2)----2----2-2---|
|---5--(5)----5----5-5---|--------5--(5)-5-----5-5---|---3--(3)----3----3-3---|
|-6---------6----6---6---|------6--------6---6---6---|-4---------4----4-----4-|
|-6---------6----6-----6-|-(6)--6----------6-6-----6-|-4---------4----4-----4-|
|-4---------4----4-----4-|-(4)--4----------4-4-----4-|-2---------2----2-----2-|


  +Q   S E. +E  S S S S S S
|--------2--(2)-2-----2-2---|
|--------2--(2)-2-----2-2---|
|--------3--(3)-3-----3-3---|
|-(4)--4----------4-4-----4-|
|-(4)--4----------4-4-----4-|
|-(2)--2----------2-2-----2-|


  S E. +Q   S E. S S S S   +Q   S E. +E  S S S S S S
|---2--(2)----2----2-2---|--------2--(2)-2-----2-2----|
|---2--(2)----2----2-2---|--------2--(2)-2-----2-2----|
|---3--(3)----3----3-3---|--------3--(3)-3-----3-3----|
|-4---------4----4-----4-|-(4)--4----------4-4-----4--|
|-4---------4----4-----4-|-(4)--4----------4-4-----4--|
|-2---------2----2-----2-|-(2)--2----------2-2-----2--|


  Q  E E E E E E   E E E E E E E E   Q  E E E E E E   E E E E E E E E
|--------------1-|---------2-1-----|--------------4-|-----------------|
|--------4-2-----|-2-4-2-------4-2-|----------------|---7---6---4-----|
|------6-----1---|-------1---------|--------5-------|-5---5---5---5---|
|----6-----------|-----------------|------6---6-----|-----------------|
|-4--------------|-----------------|----6-------6---|-----------------|
|----------------|-----------------|-4--------------|---------------4-|


  Q  E E E E E E   E E E E E E E E   E E E E E E Q    +E  E E E E E E E
|----------------|-----------------|----------------|-------------------|
|----------------|-----------------|----------------|-------------------|
|--------6-----8-|---6---6---8-----|----------------|-----------5-------|
|------8---8-----|-8---8---8-------|-------4--------|-------6-----6-----|
|----8-------8---|-----------------|---1-4---4------|-----6---6-----6---|
|-6--------------|-------------6-4-|-2---------6-4--|-(4)-------------4-|


  Q  E E E E E E   E E E E E E E E   Q  E E E E E E   E E E E E E E E
|--------------1-|---------2-1-----|--------------4-|-----------------|
|--------4-2-----|-2-4-2-------4-2-|----------------|---7---6---4-----|
|------6-----1---|-------1---------|--------5-------|-5---5---5---5---|
|----6-----------|-----------------|------6---6-----|-----------------|
|-4--------------|-----------------|----6-------6---|-----------------|
|----------------|-----------------|-4--------------|---------------4-|


  Q  E E E E E E   E E E E E E E E   E E E E E E Q    +E  E E E E E E E
|----------------|-----------------|----------------|-------------------|
|----------------|-----------------|----------------|-------------------|
|--------6-----8-|---6---6---8-----|----------------|-----------5-------|
|------8---8-----|-8---8---8-------|-------4--------|-------6-----6-----|
|----8-------8---|-----------------|---1-4---4------|-----6---6-----6---|
|-6--------------|-------------6-4-|-2---------6-4--|-(4)-------------4-|


  Q  E E E E E E   E E E E E E E E   Q  E E E E E E   E E E E E E E E
|--------------1-|---------2-1-----|--------------4-|-----------------|
|--------4-2-----|-2-4-2-------4-2-|----------------|---7---6---4-----|
|------6-----1---|-------1---------|--------5-------|-5---5---5---5---|
|----6-----------|-----------------|------6---6-----|-----------------|
|-4--------------|-----------------|----6-------6---|-----------------|
|----------------|-----------------|-4--------------|---------------4-|


  Q  E E E E E E   E E E E E E E E   E E E E E E Q    +E  E E E E E E E
|----------------|-----------------|----------------|-------------------|
|----------------|-----------------|----------------|-------------------|
|--------6-----8-|---6---6---8-----|----------------|-----------5-------|
|------8---8-----|-8---8---8-------|-------4--------|-------6-----6-----|
|----8-------8---|-----------------|---1-4---4------|-----6---6-----6---|
|-6--------------|-------------6-4-|-2---------6-4--|-(4)-------------4-|


  Q  E E E E E E   E E E E E E E E   Q  E E E E E E   E E E E E E E E
|--------------1-|---------2-1-----|--------------4-|-----------------|
|--------4-2-----|-2-4-2-------4-2-|----------------|---7---6---4-----|
|------6-----1---|-------1---------|--------5-------|-5---5---5---5---|
|----6-----------|-----------------|------6---6-----|-----------------|
|-4--------------|-----------------|----6-------6---|-----------------|
|----------------|-----------------|-4--------------|---------------4-|


  Q  E E E E E E   E E E E E E E E
|----------------|-----------------*|
|----------------|-----------------*|
|--------6-----8-|---6---6---8-----*|
|------8---8-----|-8---8---8-------*|
|----8-------8---|-----------------*|
|-6--------------|-------------6-4-*|
Comments