3 Doors Down - Here Without You Chords & Tabs

 

Here Without You Chords & Tabs

3 Doors Down Chords & Tabs

Version: 1 Type: Tab 3 ratings
1 star 2 stars 3 stars 4 stars 5 stars
comments

Here Without You Tab

   
3 Doors Down - Here Without You
     

Capo: 1st fret

---------|---------|---------|---------|---------|---------|---------|--------
---------|-1-----0-|-----0---|-1-------|---------|---------|---------|-0------
-------2-|---2-----|-2-----2-|---2-----|---------|---------|-----0---|---0----
-----2---|-----2---|---2-----|---------|-------3-|---------|---0-----|-----0--
-0-------|---------|---------|-----0---|---0h3---|-3-0-----|---------|--------
---------|---------|---------|-------3-|-1-------|-----3---|---------|--------
 Intro:                                                                       

---|--------------------------------------------------------------------------
---|--------------------------------------------------------------------------
---|--------------------------------------------------------------------------
---|--------------------------------------------------------------------------
---|--------------------------------------------------------------------------
-3-|--------------------------------------------------------------------------
                                                                              

---------|---------|---------|---------|---------|---------|---------|--------
---------|-1-----0-|-----0---|-1-------|---------|-0-----1-|-----0---|-1/3----
-------2-|---2-----|-2-----2-|---2-----|-------0-|---0-----|-0-----0-|--------
-----2---|-----2---|---2-----|-----2---|-----0---|-----0---|---0-----|--------
-0-------|---------|---------|-------0-|---------|---------|---------|--------
---------|---------|---------|---------|-3-------|---------|---------|--------
 Verse 1:                                                                     

---|---------|---------|---------|---------|---------|---------|---------|----
---|---------|-1-----0-|-----0---|-1-------|---------|---------|---------|-0--
---|-------2-|---2-----|-2-----2-|---2-----|---------|---------|-----0---|----
---|-----2---|-----2---|---2-----|---------|-------3-|---------|---0-----|----
---|-0-------|---------|---------|-----0---|---0h3---|-3-0-----|---------|----
---|---------|---------|---------|-------3-|-1-------|-----3---|---------|----
                                                                              

-------|---------|---------|---------|---------|---------|---------|----------
-------|---------|-1-----0-|-----0---|-1-------|---------|-0-----1-|-----0----
-0-----|-------2-|---2-----|-2-----2-|---2-----|-------0-|---0-----|-0-----0--
---0---|-----2---|-----2---|---2-----|-----2---|-----0---|-----0---|---0------
-------|-0-------|---------|---------|-------0-|---------|---------|----------
-----3-|---------|---------|---------|---------|-3-------|---------|----------
                                                                              

-|---------|---------|---------|---------|---------|---------|---------|------
-|-1/3-----|---------|-1-----0-|-----0---|-1-------|---------|---------|------
-|---------|-------2-|---2-----|-2-----2-|---2-----|---------|---------|------
-|---------|-----2---|-----2---|---2-----|---------|-------3-|---------|---0--
-|---------|-0-------|---------|---------|-----0---|---0h3---|-3-0-----|------
-|---------|---------|---------|---------|-------3-|-1-------|-----3---|------
                                                                              

-----|---------|---------|---------|---------|---------|---------|---------|--
-----|-0-------|---------|-1-----0-|-----0---|-1-------|---------|-0-----1-|--
-0---|---0-----|-------2-|---2-----|-2-----2-|---2-----|-------0-|---0-----|--
---0-|-----0---|-----2---|-----2---|---2-----|-----2---|-----0---|-----0---|--
-----|---------|-0-------|---------|---------|-------0-|---------|---------|--
-----|-------3-|---------|---------|---------|---------|-3-------|---------|--
                                                                              

---------|---------|---------|---------|---------|---------|---------|--------
-----0---|-1/3-----|---------|-1-----0-|-----0---|-1-------|---------|--------
-0-----0-|---------|-------2-|---2-----|-2-----2-|---2-----|---------|--------
---0-----|---------|-----2---|-----2---|---2-----|---------|-------3-|--------
---------|---------|-0-------|---------|---------|-----0---|---0h3---|-3-0----
---------|---------|---------|---------|---------|-------3-|-1-------|-----3--
                                                                              

---|---------|---------|------------------------------------------------------
---|---------|-0-------|------------------------------------------------------
---|-----0---|---0-----|------------------------------------------------------
---|---0-----|-----0---|------------------------------------------------------
---|---------|---------|------------------------------------------------------
---|---------|-------3-|------------------------------------------------------
                                                                              

---------|-------0-|---------|-1p0-----|---------|-------3-|-----1---|-0------
---------|-3-------|---1-----|-----3-1-|---------|-0-------|-0-------|-----3--
-------0-|---0-----|-----0---|---------|-------0-|---0-----|---0---0-|---0----
-----2---|-----2---|-------2-|---------|-----0---|-----0---|---------|--------
-3-------|---------|---------|---------|---------|---------|---------|--------
---------|---------|---------|---------|-3-------|---------|---------|--------
 Chorus:                                                                      

---|---------|---------|---------|---------|---------|---------|---------|----
---|---------|-1-----3-|---1-----|-3p1-----|---------|---------|---------|-0--
-0-|-------2-|---2-----|-------2-|-----2---|---------|---------|-----0---|----
---|-----2---|-----2---|---------|-------2-|-------3-|---------|---0---0-|----
---|-0-------|---------|---------|---------|---0h3---|---3-----|---------|----
---|---------|---------|---------|---------|-1-------|-----3---|---------|----
                                                                              

-------|----------------------------------------------------------------------
-------|----------------------------------------------------------------------
-0-----|----------------------------------------------------------------------
---0---|----------------------------------------------------------------------
-------|----------------------------------------------------------------------
-----3-|----------------------------------------------------------------------
                                                                              

---------|---------|---------|---------|---------|---------|---------|--------
---------|-1-----0-|-----0---|-1-------|---------|-0-----1-|-----0---|-1/3----
-------2-|---2-----|-2-----2-|---2-----|-------0-|---0-----|-0-----0-|--------
-----2---|-----2---|---2-----|-----2---|-----0---|-----0---|---0-----|--------
-0-------|---------|---------|-------0-|---------|---------|---------|--------
---------|---------|---------|---------|-3-------|---------|---------|--------
 Intro to verse 2:                                                            
[ Tab from: http://www.guitartabs.cc/tabs/0-9/3_doors_down/here_without_you_tab.html ]
---|---------|---------|---------|---------|---------|---------|---------|----
---|---------|-1-----0-|-----0---|-1-------|---------|---------|---------|-0--
---|-------2-|---2-----|-2-----2-|---2-----|---------|---------|-----0---|----
---|-----2---|-----2---|---2-----|---------|-------3-|---------|---0---0-|----
---|-0-------|---------|---------|-----0---|---0h3---|-3-0-----|---------|----
---|---------|---------|---------|-------3-|-1-------|-----3---|---------|----
                                                                              

-------|----------------------------------------------------------------------
-------|----------------------------------------------------------------------
-0-----|----------------------------------------------------------------------
---0---|----------------------------------------------------------------------
-------|----------------------------------------------------------------------
-----3-|----------------------------------------------------------------------
                                                                              

---------|---------|---------|---------|---------|---------|---------|--------
---------|-1-----0-|-----0---|-1-------|---------|-0-----1-|-----0---|-1/3----
-------2-|---2-----|-2-----2-|---2-----|-------0-|---0-----|-0-----0-|--------
-----2---|-----2---|---2-----|-----2---|-----0---|-----0---|---0-----|--------
-0-------|---------|---------|-------0-|---------|---------|---------|--------
---------|---------|---------|---------|-3-------|---------|---------|--------
 Verse 2:                                                                     

---|---------|--------|---------|---------|---------|---------|---------|-----
---|---------|-1-----0|-----0---|-1-------|---------|---------|---------|-0---
---|-------2-|---2----|-2-----2-|---2-----|---------|---------|-----0---|---0-
---|-----2---|-----2--|---2-----|---------|-------3-|---------|---0-----|-----
---|-0-------|--------|---------|-----0---|---0h3---|-3-0-----|---------|-----
---|---------|--------|---------|-------3-|-1-------|-----3---|---------|-----
                                                                              

------|---------|---------|---------|---------|---------|---------|---------|-
------|---------|-1-----0-|-----0---|-1-------|---------|-0-----1-|-----0---|-
------|-------2-|---2-----|-2-----2-|---2-----|-------0-|---0-----|-0-----0-|-
--0---|-----2---|-----2---|---2-----|-----2---|-----0---|-----0---|---0-----|-
------|-0-------|---------|---------|-------0-|---------|---------|---------|-
----3-|---------|---------|---------|---------|-3-------|---------|---------|-
                                                                              

---------|---------|---------|---------|---------|---------|---------|--------
-1/3-----|---------|-1-----0-|-----0---|-1-------|---------|---------|--------
---------|-------2-|---2-----|-2-----2-|---2-----|---------|---------|-----0--
---------|-----2---|-----2---|---2-----|---------|-------3-|---------|---0----
---------|-0-------|---------|---------|-----0---|---0h3---|-3-0-----|--------
---------|---------|---------|---------|-------3-|-1-------|-----3---|--------
                                                                              

---|---------|----------------------------------------------------------------
---|-0-------|----------------------------------------------------------------
---|---0-----|----------------------------------------------------------------
---|-----0---|----------------------------------------------------------------
---|---------|----------------------------------------------------------------
---|-------3-|----------------------------------------------------------------
                                                                              

---------|-------0-|---------|-1p0-----|---------|-------3-|-----1---|-0------
---------|-3-------|---1-----|-----3-1-|---------|-0-------|-0-------|-----3--
-------0-|---0-----|-----0---|---------|-------0-|---0-----|---0---0-|---0----
-----2---|-----2---|-------2-|---------|-----0---|-----0---|---------|--------
-3-------|---------|---------|---------|---------|---------|---------|--------
---------|---------|---------|---------|-3-------|---------|---------|--------
 Chorus:                                                                      

---|---------|---------|---------|---------|---------|---------|---------|----
---|---------|-1-----3-|---1-----|-3p1-----|---------|---------|---------|-0--
-0-|-------2-|---2-----|-------2-|-----2---|---------|---------|-----0---|----
---|-----2---|-----2---|---------|-------2-|-------3-|---------|---0---0-|----
---|-0-------|---------|---------|---------|---0h3---|---3-----|---------|----
---|---------|---------|---------|---------|-1-------|-----3---|---------|----
                                                                              

-------|----------------------------------------------------------------------
-------|----------------------------------------------------------------------
-0-----|----------------------------------------------------------------------
---0---|----------------------------------------------------------------------
-------|----------------------------------------------------------------------
-----3-|----------------------------------------------------------------------
                                                                              

------------------------------------------------------------------------------
------------------------------------------------------------------------------
------------------------------------------------------------------------------
------------------------------------------------------------------------------
------------------------------------------------------------------------------
------------------------------------------------------------------------------
 Interlude: am   C   G   F   am   C   G   F   F                               

---------|-------0-|---------|-1p0-----|---------|-------3-|-----1---|-0------
---------|-3-------|---1-----|-----3-1-|---------|-0-------|-0-------|-----3--
-------0-|---0-----|-----0---|---------|-------0-|---0-----|---0---0-|---0----
-----2---|-----2---|-------2-|---------|-----0---|-----0---|---------|--------
-3-------|---------|---------|---------|---------|---------|---------|--------
---------|---------|---------|---------|-3-------|---------|---------|--------
 Chorus:                                                                      

---|---------|---------|---------|---------|---------|---------|---------|----
---|---------|-1-----3-|---1-----|-3p1-----|---------|---------|---------|-0--
-0-|-------2-|---2-----|-------2-|-----2---|---------|---------|-----0---|----
---|-----2---|-----2---|---------|-------2-|-------3-|---------|---0---0-|----
---|-0-------|---------|---------|---------|---0h3---|---3-----|---------|----
---|---------|---------|---------|---------|-1-------|-----3---|---------|----
                                                                              

-------|---------|------------------------------------------------------------
-------|---------|------------------------------------------------------------
-0-----|-2-------|------------------------------------------------------------
---0---|-2-------|------------------------------------------------------------
-------|-0-------|------------------------------------------------------------
-----3-|---------|------------------------------------------------------------
   (4x)
Comments