3 Doors Down - Here Without You Chords & Tabs

 

Here Without You Chords & Tabs

3 Doors Down Chords & Tabs

Version: 2 Type: Chords 0 ratings
1 star 2 stars 3 stars 4 stars 5 stars
comments

Here Without You Chords

   
----------------------------------------------------------------------------
		     Here without you - 3 doors Down
----------------------------------------------------------------------------
Tabbed by: Andy S.
Email: Lemur_24@hotmail.com

Tuning: Standard 

Intro 

      Bb                      F#         G#         
e|----------------------------------------------------|
B|-------------2---1------3------------------------0--|
G|----------3-----------4-------------3----------5----|
D|-------3------------4-------------4---------6-------|
A|-----1--------------------------4--------6----------|
E|------------------------------2----------4----------|

Verse

Bb                        
a hundred days has made me older 
        F#                              G#
since the last time I saw your pretty  face
Bb                           
A thousand lies has made me colder, 
F#                                      G#
and i dont think i can look at this the same 
Bb                      F#     
an all the miles that seperate 
G#                         F#                   G#
they dissapear when im dreamin of your pretty face



Chorus
     C#                       G#                         F#
     I'm here without you baby   your still on my lonely mind
e|-------------------------------------------------------------|
B|------------------4------------------------------------------|
G|---------------6------6--------------------5-----------------|
D|-----------6-------------6------------6-------6--------------|
A|---6----4------------------4----6-----------------6-----4----|
E|---4-------------------------4--------------------------2----|
[ Tab from: http://www.guitartabs.cc/tabs/0-9/3_doors_down/here_without_you_crd_ver_2.html ]
      Bb                       F#          G#
      I think about you baby, and I dream about you all the time
e|---------------------------------------------------------------|
B|-------------2---1------3-------------------------0------------|
G|----------3-----------4-------------3-----------5--------------|
D|-------3------------4-------------4----------6-------------6---|
A|-----1--------------------------4--------6-----------------4---|
E|------------------------------2----------4---------------------|

    C#                      G#                            F#
  I'm here without you baby, but your still with me in my dreams
e|-------------------------------------------------------------|
B|------------------4------------------------------------------|
G|---------------6------6--------------------5-----------------|
D|-----------6-------------6------------6-------6--------------|
A|---6----4------------------4----6-----------------6-----4----|
E|---4-------------------------4--------------------------2----|
       F#                    
    And tonight its only you and me 
e|-----------------------------------|
B|-----------------------------------|
G|-----------------------3-----------|
D|------------------4--------4-------|
A|-------4-----4-----------------4---|
E|-------2---------------------------|

The miles just keep rolling as the people leave their way to say hello
I've heard this life is overrated but I hope that this gets better as we go

I'm here without you baby but your still on my lonely mind
I think about you baby and I dream about you all the time
I'm here without you baby but your still with me in my dreams
And tonight girl, there's only you and me

Everything I know, and anywhere I go 
it gets hard but it won't take away my love
And when the last one falls, when it's all said and done
it gets hard but it won't take away my love

I'm here without you baby but your still on my lonely mind
I think about you baby and I dream about you all the time
I'm here without you baby but your still with me in my dreams
And tonight girl, there's only you and me

I'm here without you baby but your still on my lonely mind
I think about you baby and I dream about you all the time
I'm here without you baby but your still with me in my dreams
but tonight girl, there's only you and me





=======================================================================
Comments