3 Doors Down - Here Without You Chords & Tabs

 

Here Without You Chords & Tabs

3 Doors Down Chords & Tabs

Version: 3 Type: Bass Tab 0 ratings
1 star 2 stars 3 stars 4 stars 5 stars
comments

Here Without You Bass Tab

song: Here Without You
artist: 3 Doors Down
tabbed by: Mark Anthony Gruspe
email: mgruspe@peoplesupport.com
       kramy_xxiii@yahoo.com

please rate it afterwards.. thnx. 

intro:

    r~~~~   r~~~~~
G|-----------------|
D|-----------------|
A|-----------------|
E|--6----22-4------|

verse:

G|-----------------------------------|
D|-----------------------------------|
A|-----------------------------------|
E|----------6-----6-----6----64---6--|
a hundred days.... 

G|-----------------------------------|
D|-----------------------------------|
A|-----------------------------------|
E|----6---6---6---2-22-2-44---4------|

chorus:

G|-----------------------------------|
D|-----------------------------------|
A|--4----------------4---------------|
E|-----4--6---2-444-----4--6--2-444--|
[ Tab from: http://www.guitartabs.cc/tabs/0-9/3_doors_down/here_without_you_btab_ver_3.html ]
G|-----------------------------------|
D|-----------------------------------|
A|--4----------------4---------------|
E|-----4--6---2-444-----4--6--24-44--|

*intro*

verse2:
G|--------------------------------------|
D|--------------------------------------|
A|--------------------------------------|
E|--6----------666---6-66---4-444--446--|
   miles jst..rollin'.......

G|-----------------------------------|
D|-----------------------------------|
A|-----------------------------------|
E|--6---666--6-66--22-444---4--------|

*chorus*

adlib:

G|------------------------------------|
D|------------------------------------|
A|---------4-444-4--------------------|
E|--6-666-6-------44-4-44-2-22222-444-|

*repeat chorus 'till end*


add me on your friendster- kramy_xxiii@yahoo.com =p

*please dont copy and post this tab as yours. have some respect*
if u have comments or suggestions just email me mgruspe@peoplesupport.com

this song is for you bhabe....
il0veyousomuch.....
nyahahaha! 
luv u so much.
Comments