3 Doors Down - Going Down In Flames Chords & Tabs

 

Going Down In Flames Chords & Tabs

3 Doors Down Chords & Tabs

Version: 8 Type: Tab 0 ratings
1 star 2 stars 3 stars 4 stars 5 stars
comments

Going Down In Flames Tab

   
BAND: 	3 Doors Down
SONG: 	Going Down In Flames
TABBED: Drew
EMAIL:  funeral_in_carpathia13@yahoo.com
TUNNING:Standard - low to high: EADGBE

KEY:    * - Palm Mute

It's all here, it just repeats itself alot


INTRO - 0:00 - 0:58
E|-----------------------------------------|
B|-----------------------------------------|
G|--9-11-12---7-11-12---9-11-12---7-12-11--|
D|--9-11-12---7--9-10---9-11-12---7-12-11--|
A|--7--9-10---5--9-10---7--9-10---5-10--9--|
E|--7-------------------7------------------|

E|---------------------------------------|
B|---------------------------------------|
G|--9-11-12---7-11-12---9-11-12---5-4-2--|
D|--9-11-12---7--9-10---9-11-12---5-4-2--|
A|--7--9-10---5--9-10---7--9-10---3-2-0--|
E|--7-------------------7----------------|
VERSE - 0:15 - 1:13 - 1:56 - 2:54
E|---------------------------------------|
B|---------------------------------------|
G|-----------5-0-5-------------7-0-7-----|
D|--2-0-2----5-0-5----5-0-5----7-0-7-----|
A|--2-0-2----3-0-3----5-0-5----5-0-5-----|
E|--0-0-0-------------3-0-3--------------|
      *        *        *        * 

[ Tab from: http://www.guitartabs.cc/tabs/0-9/3_doors_down/going_down_in_flames_tab_ver_8.html ]
PRE-CHORUS  - 0:29 - 1:27
E|---------------------------------------|
B|---------------------------------------|
G|--------------5-----------------7------|
D|-----2--------5--------5--------7------|
A|-----2--------3--------5--------5------|
E|-----0-----------------3---------------|


CHORUS - 0:44 - 1:42 - 2:40
E|---------------------------------------|
B|---------------------------------------|
G|--9--11-12--5-----------7--------------|
D|--9---9-10--5-----5-----7--------------|
A|--7---9-10--3-----5-----5--------------|
E|--7---------------3--------------------|


BRIDGE - 2:11
E|------0------2------0-----------3------|
B|------0------3------0----------2-------|
G|------0------2------0-------0-0--------|
D|------2------0------2------2-----------|
A|------2------x------2-----3------------|
E|------0------x------0------------------|
CHORD:  Em     D      Em     C    D


ENDING RIFF - 3:09
E|---------------------------------------|
B|---------------------------------------|
G|-----------5-0-5---------7--------9----|
D|--2-0-2----5-0-5----5----7--------9----|
A|--2-0-2----3-0-3----5----5--------7----|
E|--0-0-0-------------3-------------7----|
      *        *
Comments