3 Doors Down - Going Down In Flames Chords & Tabs

 

Going Down In Flames Chords & Tabs

3 Doors Down Chords & Tabs

Version: 5 Type: Tab 0 ratings
1 star 2 stars 3 stars 4 stars 5 stars
comments

Going Down In Flames Tab

   
Artist: 3 Doors Down
Title: Going Down In Flames
Album: Away From the Sun
Tuning: Standard (E A D G B E)

Tabbed by: Bobus(bobus@pjokk.com)



    intro
E|-------------------------------------------------------------------||
B|-------------------------------------------------------------------||
G|--9-11-12----11-12-9-11-12----12-11--------------------------------||
D|--9-11-12-12-11-12-9-11-12-10-12-11--------------------------------||
A|--7-9--10-12-9--10-7-9--10-10-10-9---------------------------------||
E|----------10----------------8--------------------------------------||
[ Tab from: http://www.guitartabs.cc/tabs/0-9/3_doors_down/going_down_in_flames_tab_ver_5.html ]
       (intro continued)                  verse 
E|----------------------------------|--------------------------------||
B|----------------------------------|--------------------------------||
G|-9-11-12----11-12-9-11-12---------|--0--0--5--5--------7--7--------||
D|-9-11-12-10-11-12-9-11-12-10-9-7--|--2--2--5--5--5--5--7--7--------||
A|-7-9--10-10-9--10-7-9--10-10-9-7--|--2--2--3--3--5--5--5--5--------||
E|---------8----------------8--7-5--|--------------3--3--------------||

   chorus                 outro
E|---------------------|----------------------|
B|---------------------|----------------------|
G|--9-----12-----------|----------------------|
D|--9-10--12-12--------|--2-2-5-5-----7-7--2-2|
A|--7-10--10-12--------|--2-2-3-3-5-5-5-3--2-2|
E|----8------10--------|----------3-3---------|

I think this is 90 % correct, atleast all of my Norwegian friends thought so.....
Normally this is not my kind of music, but I managed to find this one out, 
so I thought I might share it with you all!
Enjoy!
Comments