3 Doors Down - Going Down In Flames Chords & Tabs

 

Going Down In Flames Chords & Tabs

3 Doors Down Chords & Tabs

Version: 3 Type: Tab 0 ratings
1 star 2 stars 3 stars 4 stars 5 stars
comments

Going Down In Flames Tab

Intro
----------------------------------------------------------------------
----------------------------------------------------------------------
-9--11--11--12------7--11--11--12------9--11--11--12-----5--12--12--11
-9--11--11--12------7--11--11--12------9--11--11--12-----5--12--12--11
-7--9---9---10------5--9---9---10------7--9---9---10-----3--10--10--10
----------------------------------------------------------------------

Verse
----------------------------------------------------------------------
----------------------------------------------------------------------
---9---5-------7------------------------------------------------------
---9---5---5---7------------------------------------------------------
---7---3---5---5------------------------------------------------------
-----------3----------------------------------------------------------
[ Tab from: http://www.guitartabs.cc/tabs/0-9/3_doors_down/going_down_in_flames_tab_ver_3.html ]
Chorus
-----------------------------------------------------------------
-----------------------------------------------------------------
--9--11--11--12-------5-------------7----------------------------
--9--11--11--12-------5------5------7----------------------------
--7--9---9---10-------3------5------5----------------------------
-----------------------------3-----------------------------------

Bride After Second Chorus
-----------------------------------------------------------------
-----------------------------------------------------------------
--9--5-----2-----------------------------------------------------
--9--5--5--2-----------------------------------------------------
--7--3--5--0-----------------------------------------------------
--------3--------------------------------------------------------

I don't know exactly how they play the solo part, but whats here
already lets you play most of the song.  3DD totally rocks!!!!
Comments