3 Doors Down - Duck And Run Chords & Tabs

 

Duck And Run Chords & Tabs

3 Doors Down Chords & Tabs

Version: 8 Type: Tab 0 ratings
1 star 2 stars 3 stars 4 stars 5 stars
comments

Duck And Run Tab

***Acoustic Guitar tuned to Em (EBEGBE)***

e	:--------------------------------------------------------------------------------------------------|
B	:--------------------------------------------------------------------------------------------------|
G	:----9----9--9--9--9--9--9--9--12--12--12--11----9----\ 5----5--5--5--5--5--4----4--4--------------|
D	:----0----0--0--0--0--0--0--0---0---0---0---0----0----\ 0----0--0--0--0--0--0----0--0--------------|
A	:--------------------------------------------------------------------------------------------------|
E	:--------------------------------------------------------------------------------------------------|
[ Tab from: http://www.guitartabs.cc/tabs/0-9/3_doors_down/duck_and_run_tab_ver_8.html ]
e	:--------------------------------------------------------------------------------------------------|
B	:--------------------------------------------------------------------------------------------------|
G	:-5--5--5--7--7-----9----9--9--9--9--9--\12--12--12--12--11--11--11--14----5----5------------------|
D	:-0--0--0--0--0-----0----0--0--0--0--0----0---0---0---0---0---0---0---0----0----0------------------|
A	:--------------------------------------------------------------------------------------------------|
E	:--------------------------------------------------------------------------------------------------|

e    :---------------------------------------------------------------------------------------------------|
B    :---------------------------------------------------------------------------------------------------|
G    :--5--5--5--5--5--4----4--4--5--5--5--7--7----------------------------------------------------------|
D    :--0--0--0--0--0--0----0--0--0--0--0--0--0----------------------------------------------------------|
A    :---------------------------------------------------------------------------------------------------|
E    :---------------------------------------------------------------------------------------------------|
Comments