3 Doors Down - Duck And Run Chords & Tabs

 

Duck And Run Chords & Tabs

3 Doors Down Chords & Tabs

Version: 5 Type: Tab 0 ratings
1 star 2 stars 3 stars 4 stars 5 stars
comments

Duck And Run Tab

3 Doors Down
Duck And Run




Intro4xs 
e-----------------------------------------------------------
B-5--5--5-5-5-5--8--8--7-7-5*-1--1--1-1-1-1--0--0--1-1--3---
G-----------------------------------------------------------
D-----------------------------------------------------------
A-----------------------------------------------------------
E-----------------------------------------------------------
*Play 10 on 2nd and 4th time


Verse
e-----------------------------------------------------------
B-----------------------------------------------------------
G-----------------------------------------------------------
D-0h2-2--2-2-2------------0h2-2--2-2-2----------------------
A--------------3-2-0h2-3---------------3-2-0-2/3\2-0--------
E-----------------------------------------------------------

Chorus
e-----------------------------------------------------------
B-----------------------------------------------------------
G-9--9--12-12--11--9*---------------------------------------
D-9--9--12-12--11--9*--10--10--9--9--10--12-----------------
A-7--7--10-10--9---7*--10--10--9--9--10--12-----------------
E----------------------8---8---7--7--8---10-----------------
*Play 12-14-14 instead every 2nd time

Bridge
e-----------------------------------------------------------
B-----------------------------------------------------------
G--9-----------------------9--------------------------------
D--9---9---10---7---9-10---9---9---10--7---9/10\9-----------
A--7---9---10---7---9-10---7---9---10--7---9/10\9-----------
E------7---8----5---7-8--------7---8---5---9/8-\9-----------
[ Tab from: http://www.guitartabs.cc/tabs/0-9/3_doors_down/duck_and_run_tab_ver_5.html ]
e-----------------------------------------------------------
B-----------------------------------------------------------
G--9-----------------------9--------------------------------
D--9---9---10---7---9-10---9---9---10--10-10-10-10----------
A--7---9---10---7---9-10---7---9---10--10-10-10-10----------
E------7---8----5---7-8--------7---8---8--8--8--8-----------
Don’t play these the last time |_________|

Pre-Solo
e-----------------------------------------------------------
B-----------------------------------------------------------
G-9------9------9--12--11--14---14-14-----------------------
D-9---9--9---9--9--12--11--14---14-14-----------------------
A-7---9--7---9--7--10--9---12---12-12-----------------------
E-----7------7----------------------------------------------

e-----------------------------------------------------------
B-----------------------------------------------------------
G-9------9------9------------------7------------------------
D-9---9--9---9--9--10--9---7--9-10-7------------------------
A-7---9--7---9--7--10--9---7--9-10-5------------------------
E-----7------7-----8---7---5--7-8---------------------------

Solo
e-----------------------------------------------------------
B-----------------------------------------------------------
G-----------------------------------------------------------
D-----5--4-5-4--------5--4-5-4--7-5----5--4-5-4-------------
A-7------------5--7------------------------------5-7--------
E-----------------------------------------------------------

e-----------------------------------------------------------
B-----10-9-10-9-------10-9-10-9--12-10----10--9-10-9--------
G-9-------------7-9----------------------------------7-9----
D-----------------------------------------------------------
A-----------------------------------------------------------
E-----------------------------------------------------------
Comments