3 Doors Down - Duck And Run Chords & Tabs

 

Duck And Run Chords & Tabs

3 Doors Down Chords & Tabs

Version: 4 Type: Tab 0 ratings
1 star 2 stars 3 stars 4 stars 5 stars
comments

Duck And Run Tab

   
Artist : 3 doors down
Song : duck and run
Cd: the better life

yo guys, i submited this once it didn't seem to come up. so here it
is again. i swear this is correct. i figured this out by myself
right when duck and run came out. here you go

::Acoustic Guitar, regular tuning::

e]
b]
d]--9-9-9-9-9---12--12--12-11----5-5-5-5/4-4-4-4
g]--x-x-x-x-x----x---x--x--x-----x-x-x-x/x-x-x-x
a]--7-7-7-7-7----10-10-10--9-----3-3-3-3/2-2-2-2
e]

Alright, now the 2nd guitar player comes in with electric
guitar. You can add distortion to this and make it sound sweet

e-----------------------------------------------------------
B-----------------------------------------------------------
G-----------------------------------------------------------
D-0h2-2--2-2-2------------0h2-2--2-2-2----------------------
A--------------3-2-0h2-3---------------3-2-0-2/3\2-0--------
E-----------------------------------------------------------

The chorus is just as easy as the introduction. Just changed
up a little. As seem below=

chorus

e-----------------------------------------------------------
B-----------------------------------------------------------
G-9--9--12-12--11--9*---------------------------------------
D-9--9--12-12--11--9*--10--10--9--9--10--12-----------------
A-7--7--10-10--9---7*--10--10--9--9--10--12-----------------
E----------------------8---8---7--7--8---10-----------------


Here's the Bridge
e-----------------------------------------------------------
B-----------------------------------------------------------
G--9-----------------------9--------------------------------
D--9---9---10---7---9-10---9---9---10--7---9/10\9-----------
A--7---9---10---7---9-10---7---9---10--7---9/10\9-----------
E------7---8----5---7-8--------7---8---5---9/8-\9-----------
[ Tab from: http://www.guitartabs.cc/tabs/0-9/3_doors_down/duck_and_run_tab_ver_4.html ]
e-----------------------------------------------------------
B-----------------------------------------------------------
G--9-----------------------9--------------------------------
D--9---9---10---7---9-10---9---9---10--10-10-10-10----------
A--7---9---10---7---9-10---7---9---10--10-10-10-10----------
E------7---8----5---7-8--------7---8---8--8--8--8-----------
Don’t play these the last time |_________|

This is that little guitar part right before the solo, 
this sounds sweet on acoustic, and struming down on the chords
makes it sound very 3 doors down, like.

e-----------------------------------------------------------
B-----------------------------------------------------------
G-9------9------9--12--11--14---14-14-----------------------
D-9---9--9---9--9--12--11--14---14-14-----------------------
A-7---9--7---9--7--10--9---12---12-12-----------------------
E-----7------7----------------------------------------------

e-----------------------------------------------------------
B-----------------------------------------------------------
G-9------9------9------------------7------------------------
D-9---9--9---9--9--10--9---7--9-10-7------------------------
A-7---9--7---9--7--10--9---7--9-10-5------------------------
E-----7------7-----8---7---5--7-8---------------------------

Probably my favorite part of the song, the solo! rather simple
just look below!

e-----------------------------------------------------------
B-----------------------------------------------------------
G-----------------------------------------------------------
D-----5--4-5-4--------5--4-5-4--7-5----5--4-5-4-------------
A-7------------5--7------------------------------5-7--------
E-----------------------------------------------------------

e-----------------------------------------------------------
B-----10-9-10-9-------10-9-10-9--12-10----10--9-10-9--------
G-9-------------7-9----------------------------------7-9----
D-----------------------------------------------------------
A-----------------------------------------------------------
E-----------------------------------------------------------

alright, that is basicly your whole song right there. pretty sweet 
song, took me about a week to figure out, but it was worth it. If you
have any suggestions, e-mail me at = smackdown1@att.net, well, peace out!

-josh leblanc

Comments