3 Doors Down - Duck And Run Chords & Tabs

 

Duck And Run Chords & Tabs

3 Doors Down Chords & Tabs

Version: 3 Type: Bass Tab 0 ratings
1 star 2 stars 3 stars 4 stars 5 stars
comments

Duck And Run Bass Tab

Artist: 3 Doors Down Song: Duck and Run.
 Tabbed by Mike cypresshill_13@hotmail.com.
  

Standard Tuning

rest first two mesures
|-----------------------|
|-----------------------| Play once
|--0/77777-2h3-2-0-2-3--|
|-----------------------|
Verse
|-----------------------|
|---22222--------------| 
|---------2h3-2-0-2-3--|
|-----------------------|


Chorus
|-----------------------|
*--2-22-----------------*
*-----------3-33-2-22h3-* 
|------3-333------------|

right after \"...I won't turn around\"
[ Tab from: http://www.guitartabs.cc/tabs/0-9/3_doors_down/duck_and_run_btab_ver_3.html ]
|-----------------------|
|---2-------------------| 
|-----2-3-0-2-3(3333)---| (3333) Play on third time hard
|-----------------------|

Repeat Verse

Play when sings \"Hereeeeeeeeeee\" 
|----------------------|---------------------|
*--2-2----5-4-7-7-77---|--2-2----------------* Repeat twice
*---2-2-33-------------|---2-2-33-3-2-0-0-23-* 
|----------------------|---------------------|

verse
right after guitar solo emphasis first part of verse (da da da da) 
chorus
verse

Repeat verse and chorus as needed

 
:: Ultimate Guitar Archive :: 
http://www.ultimate-guitar.com 



Comments