3 Doors Down - Down Posion Chords & Tabs

 

Down Posion Chords & Tabs

3 Doors Down Chords & Tabs

Version: 1 Type: Bass Tab 0 ratings
1 star 2 stars 3 stars 4 stars 5 stars
comments

Down Posion Bass Tab

intro
G|----------|----------|-------------|----------|-----------|
D|----------|----------|-------------|----------|-----------|
A|--3-2-----|----------|------3-2----|----------|-----3-2---|
E|------3-2-|-0--------|--3-------32-|-0--------|--3-----32-|

G|------------|--------------|-------------|----------|
D|------------|--------------|-------------|----------|
A|------------|--------------|-------------|-3--2-----|
E|-0--00--00-|-0----00-00---|-3----33-33--|--------3-|

verse
G|---------|----------|---------|----------|
D|---------|----------|---------|----------|
A|---------|----------|---------|-3-2------|
E|--0---0--|-0----0---|-3---3---|-------3--|

G|---------|----------|---------|----------|--------|-----------|
D|---------|----------|---------|----------|--------|-----------|
A|---------|----------|---------|-3-32----|--------|-----3-2---|
E|-0---0---|-00-0-0---|-3---3---|------3-32|--0-----|-3-------32|

G|--------|------------|----------|-------------|----------|---------------|
D|--------|------------|----------|-------------|----------|---------------|
A|--------|-----3-2----|----------|------3-2----|----------|-----------5-7-|
E|-0------|-3-------32-|-0---0-00-|-3--------32-|-0--0-00-|-3---85-7-----|

Chorus

G|----------------|------------------------|
D|--------10---10-|-----7---------9--------|
A|-7-77-----------|--5h7------7h9-------5--|
E|------8---8----|-5------7--------5h7----|
[ Tab from: http://www.guitartabs.cc/tabs/0-9/3_doors_down/down_posion_btab.html ]
G|----------------|-------------------------|
D|--------10---10-|-----7---------9----9----|
A|-7-77-----------|--5h7------7h9-----------|
E|------8---8----|-5------7---------7------|

Verse 2
G|---------|----------|---------|----------|
D|---------|----------|---------|----------|
A|---------|----------|---------|-3-32----|
E|-0---0---|-00-0-0---|-3---3---|------3-32|

G|--------|------------|----------|-------------|----------|---------------|
D|--------|------------|----------|-------------|----------|---------------|
A|--------|-----3-2----|----------|------3-2----|----------|-----------5-7-|
E|-0------|-3-------32-|-0---0-00-|-3--------32-|-0--0-00-|-3---85-7-----|

chorus x 2

Solo
X4
G|----------------|------------------|
D|----------------|------------------|
A|-7-777-------7--|--------23202-----|
E|-------5-6-7----|-5-88--------3-2--|

Interlude
X4
G|--------|----------|
D|--------|----------|
A|--7-----|----------|
E|-----8--|-5----7---|

Repeat chorus x2

Final verse

G|--------|------------|----------|-------------|
D|--------|------------|----------|-------------|
A|--------|-----3-2----|----------|------3-2----|
E|-0------|-3-------32-|-0---0-00-|-3--------32-|

G|--------|------------|----------|---------------|
D|--------|------------|----------|---------------|
A|--------|-----3-2----|----------|-----------5-7-|
E|-0------|-3-------32-|-0---0-00-|-3---85-7-----|


Chorus x2

End

G|---------------|--------------|-------------|----------|
D|---------------|--------------|-------------|----------|
A|-------------5-|--------------|-----------5-|----------|
E|-00--00--5-7---|-00-00--12--|-00005-7---|-0000-----|
Comments