3 Doors Down - Down Poison Chords & Tabs

 

Down Poison Chords & Tabs

3 Doors Down Chords & Tabs

Version: 1 Type: Tab 0 ratings
1 star 2 stars 3 stars 4 stars 5 stars
comments

Down Poison Tab

   
3 doors down, down poison.
Tabbed by aaron baker, baker33@wvadventures.net.
  
3 doors down, down poison.
Tabbed by Aaron Baker (baker33@citynet.net)
  
Artist: 3 Doors Down
Song: Down Poison
Album: The Better Life
Tabbed by:  Aaron Baker  (baker33@citynet.net)

This is my final revision and redition of the song, including the updated solo.


Standard tuning

Intro and Pre-chorus

       C     Bm     Em       G       C      Bm     Em      C      Bm     Em
E--------------------------------------------------------------------------|
B--------------------------------------------------------------------------|
G------5------4----------------------5------4--------------5------4--------|
D------5------4------2-------5-------5------4------2-------5------4------2-|
A------3------2------2-------5-------3------2------2-------3------2------2-|
E--00-----00-----00--0---00--3---00-----00-----00--0--00-----00-----00---0-|
   ..     ..     ..      ..      ..     ..     ..  

Verse
Use Full Chords   (list at end)
E, G, C, Bm, A, Em

the lick between the C and Bm is  E----------|
                                  B------0h1-|
                                  G----------|
                                  D----2-----|
                                  A--3-------|
                                  E----------|

Pre-Chorus
repeat into lick


Chorus

E----------------------------------|
B----------------------------------|
G------5-------4-------5-------4---|
D--2---5---7---4---2---5---7---4---|
A--2---3---7---2---2---3---7---2---|
E--0-------5-------0-------5-------|
[ Tab from: http://www.guitartabs.cc/tabs/0-9/3_doors_down/down_poison_tab.html ]
Verse 2
same as 1 only once through

Pre-Chorus

Chorus

Solo

E-------------------------17p15p----17p15p---19p17p15p-----------------------------------------------------------|
B--5^-5^-5^-5^-5^-5^-5^--------17--------17----------1717--------------------------------------------------------|
G----------------------------------------------------------------------------------------------------------------|
D----------------------------------------------------------------------------------------------------------------|
A------------------------------------------------------------------------------------------12-12-12-14-14-14~~~~-|
E----------------------------------------------------------14~~~~-12~~~~--12-12-12-14-14-14----------------------|

E--------------------------------sl/12--15--sl/12-12p10---15-14-12-----------------------------------|
B------------------------------------------------------------------15-13-12--12----------------------|
G-------------------------------------------------------------------------------14-12--11------------|
D-----------------------------------------------------------------------------------------12----sl/14|
A--12--14^--12--3^p0-3^p0--------------------------------------------------------------------14------|
E-------------------------3^p0-----------------------------------------------------------------------|

Repeat Chorus


Outro
Palm Mute and Em chord over and over again

Key

Palm Mute     = ..
Vibrato       = ~~~~
Bend 1/4 step = ^
Slide         = sl/
Hammer on     = h
Pull Off      = p

Chords

Em - 0-2-2-0-0-0
C  - 0-3-2-0-1-0
Bm - 0-2-4-4-2-2
E  - 0-2-2-1-0-0
G  - 3-2-0-0-3-3
A  - 0-0-2-2-2-0 
:: Ultimate Guitar Archive :: 
http://www.ultimate-guitar.com 

Comments