3 Doors Down - Down Poison Chords & Tabs

 

Down Poison Chords & Tabs

3 Doors Down Chords & Tabs

Version: 1 Type: Chords 1 rating
1 star 2 stars 3 stars 4 stars 5 stars
comments

Down Poison Chords

Submitted by= Shelton, Cameron
Artist= 3 Doors Down
Song Title= Down Poison

Intro w/ distortion     
e-----------------------------------------------
b-----------------------------------------------
g--5--4-------------5--4------------5--4--------
d--5--4----2-xx-2---5--4---2-xx-2---5--4--------
a--3--2----2-xx-2---3--2---2-xx-2---3--2--------
e----------0-xx-0----------0-xx-0---------------
[ Tab from: http://www.guitartabs.cc/tabs/0-9/3_doors_down/down_poison_crd.html ]
Verse[clean]        Repeat until interlude
e---0---3---------------------------------------
b---0---3---------0h1---------------------------
g---1---0----------------5--4-------------------
d---2---0------2---------5--4-------------------
a---2---2----3-----------3--2-------------------
e---0---3---------------------------------------

Interlude  Repeat until chorus
e-----------------------------------------------
b-----------------------------------------------
g---5--4------------5--4------------------------
d---5--4---2-xx-2---5--4---2--------------------
a---3--2---2-xx-2---3--2---2--------------------
e----------0-xx-0----------0--------------------

Chorus w/ distortion   Repeat 4 times
e------------------------------------------------
b------------------------------------------------
g-------5----------------------------------------
d---2---5----7----9------------------------------
a---2---3----7----9------------------------------
e---0--------5----7------------------------------





Comments