3 Doors Down - Down Later Chords & Tabs

 

Down Later Chords & Tabs

3 Doors Down Chords & Tabs

Version: 1 Type: Tab 0 ratings
1 star 2 stars 3 stars 4 stars 5 stars
comments

Down Later Tab

   
3 Doors Down
Down Later 


intro:
G1:
--0--------0-------
-----3--------3----
--------2--------2-
-------------------
-------------------
-------------------repeat as many times as needed
G2:
---2----------0----
---2----------3----
---3----------2----
---4----------0----
---4---------------
---2---------------use volume swell for these cords.
  F#          Dsus   

verse:
---2-2-2-2--(0)-0----
---2-2-2-2--(3)-3----
---3-3-3-3--(2)-2----
---4-4-4-4--(0)-0----
---4-4-4-4-----------
---2-2-2-2----------- struming pattern: up down up down
after every4th repeat, do G1 intro fill once after the D cord
[ Tab from: http://www.guitartabs.cc/tabs/0-9/3_doors_down/down_later_tab.html ]
chorus
-----------------------------------------------------------------
-----------------------------------------------------------------
---------------------7-7-7-7/9-9-9-----------------7-7-7-7-------
---22-2--2-4xxxxx44--7-7-7-7/9-9-9--2--2-4xxxxx44--7-7-7-7-2-2-2-
---22-2--2-4xxxxx44--5-5-5-5/7-7-7--2--2-4xxxxx44--5-5-5-5-2-2-2-
---00-0--0-2xxxxx22-----------------0--0-2xxxxx22----------0-0-0-
pm...

interlude:
G1:(first time)
-------------------------
-------------------------
-------------------------
-------------------------
-------------------------
---2---5--8-7---0-0-1--2-

G2 and G1:
-------------------------
-------------------------
-------------------------
---2---7--10-9--2-2-3--4-
---2---7--10-9--2-2-3--4-
---0---5---8-7--0-0-1--2-
half way thru this you palm mute some of the cords

thats about it,  as for the solo, just improvise on F# and D scales.  
Listen to the song for timing, how many times to do things and whatever 
else you need.  any questions, email me at
Exxodus203@aol.com

21310



Comments