3 Doors Down - Dangerous Game Chords & Tabs

 

Dangerous Game Chords & Tabs

3 Doors Down Chords & Tabs

Version: 1 Type: Tab 0 ratings
1 star 2 stars 3 stars 4 stars 5 stars
comments

Dangerous Game Tab

hey...this is my first tab...and maybe last...anywayz..i was looking at
the list of tabs for 3 doors down but saw none for dangerous game...
it's a pretty good song...(i like the intro...) anywayz..gl hf

plz mail me for corrections..cause i know i have mistakes somewhere....
kl2forever@hotmail.com

-Intro-

(clean)
e|-5----------------------|-----------------------|-0-5-3--3/5--8-8-8-8/10-8---|
B|-5----------------------|-----------------------|-------------8-8-8-8----8---|
G|-5----5p4-----------4---|-----------------------|----------------------------|
D|-7-5------5---5-5h7---5-|------------------2--5-|----------------------------|
A|-7----------7-----------|-----3-3h5-5-3--5------|----------------------------|
E|-5----------------------|-3-5-------------------|----------------------------|

(clean)
e|---8-----8-----8-|-7h8p7---------------|------------------------------------0----0------|
B|-----8-8---8-8---|-------10-8-8/10-10~-|------------------------------------------------|
G|-----------------|---------------------|------4---------5-----4----5-4--4/5--5/7---7/9--|
D|-----------------|---------------------|--5h7---5---5h7---5h7---5-----------------------|
A|-----------------|---------------------|------------------------------------------------|
E|-----------------|---------------------|------------------------------------------------|

Verse
Gtr.1 (Clean)
e|-----------------|---------------------|-|
B|-----------------|--------------3------|-|
G|-2---------------|-----0---------------|-|
D|-2---------------|---2--------4--------|-|
A|-0---------------|-3--------5----------|-|
E|-----------------|---------------------|-|
[ Tab from: http://www.guitartabs.cc/tabs/0-9/3_doors_down/dangerous_game_tab.html ]
(Distortion)
Part 1:
      * *                * *                * *                * *      
e|------------------|------------------|------------------|------------------|
B|------------------|------------------|------------------|------------------|
G|----------7----7--|-5--5-5---7----7--|----------7----7--|-5--5-5---7----7--|
D|-7--7-7---7----7--|-5--5-5---7----7--|-7--7-7---7----7--|-5--5-5---7----7--|
A|-7--7-7---5----5--|-3--3-3---5----5--|-7--7-7---5----5--|-3--3-3---5----5--|
E|-5--5-5-----------|------------------|-5--5-5-----------|------------------|

      * *                * *                
e|------------------|------------------|---------------------|
B|------------------|------------------|---------------------|
G|----------7----7--|-5--5-5---7----7--|---------------------|
D|-7--7-7---7----7--|-5--5-5---7----7--|-7-------------------|
A|-7--7-7---5----5--|-3--3-3---5----5--|-7-let ring----------|
E|-5--5-5-----------|------------------|-5-------------------|

then Part 2:

      * *                        * *                        * *
e|--------------------------|--------------------------|--------------------------|------------------|
B|--------------------------|--------------------------|--------------------------|-1p0--------------|
G|--------------------------|--------------------------|--------------------------|-----0------------|
D|-7--7-7--5--x-x-x-x-x-x-x-|-7--7-7--5--x-x-x-x-x-x-x-|-7--7-7--5--x-x-x-x-x-x-x-|------------------|
A|-7--7-7--5--x-x-x-x-x-x-x-|-7--7-7--5--x-x-x-x-x-x-x-|-7--7-7--5--x-x-x-x-x-x-x-|-------3\2---0----|
E|-5--5-5--3--x-x-x-x-x-x-x-|-5--5-5--3--x-x-x-x-x-x-x-|-5--5-5--3--x-x-x-x-x-x-x-|-----------3------|

      * *                        * *                        * *
e|--------------------------|--------------------------|--------------------------|------------------|
B|--------------------------|--------------------------|--------------------------|-1p0--------------|
G|--------------------------|--------------------------|--------------------------|-----0------------|
D|-7--7-7--5--x-x-x-x-x-x-x-|-7--7-7--5--x-x-x-x-x-x-x-|-7--7-7--5--x-x-x-x-x-x-x-|------------------|
A|-7--7-7--5--x-x-x-x-x-x-x-|-7--7-7--5--x-x-x-x-x-x-x-|-7--7-7--5--x-x-x-x-x-x-x-|-------3\2---0----|
E|-5--5-5--3--x-x-x-x-x-x-x-|-5--5-5--3--x-x-x-x-x-x-x-|-5--5-5--3--x-x-x-x-x-x-x-|-----------3------|

sorry..that's about it...i really couldn't figure the second guitar parts...
also..the solo...and another part...
but remember ...

be content...

"don't worry about today...because it's already tommorrow in austrailia"
or unless your in austrailia...
"don't worry about today...because ..piss off...
cya

Comments