3 Doors Down - Changes Chords & Tabs

 

Changes Chords & Tabs

3 Doors Down Chords & Tabs

Version: 4 Type: Tab 0 ratings
1 star 2 stars 3 stars 4 stars 5 stars
comments

Changes Tab

I believe this is how the song starts. There are 2 guitars playing over each other.

Guitar 1:
-----7-7-----------------------7-7--------------10---------
----------8-----10p7-----7--8-------8-----10p7------10-----
-------------9--------7----------------9-------------------
-----------------------------------------------------------
-----------------------------------------------------------
--0--------------------------------------------------------

-----7-7---------------------------------------------------
----------8-----10p7-----7---------------------------------
-------------9--------7------------------------------------
-----------------------------------5-----------4-----------
--------------------------------5-----------4--------------
--0--------------------------3--------3--2-----------------
[ Tab from: http://www.guitartabs.cc/tabs/0-9/3_doors_down/changes_tab_ver_4.html ]
Guitar 2:
-------7--------------------------------------7-8----------
----------8-----10p7-----------------10p7--10-----10/12----
-------------9--------7------------------------------------
-------------------------10--9~~~--------------------------
-----------------------------------------------------------
-----------------------------------------------------------

-----------------------------------------------------------
--10p7-----------------------------------------------------
--------7--------------------------------------------------
-----------10/---------5-----------------------------------
--------------------5-----------4--------------------------
-----------------3--------3--2-----2h3p2p0-----------------

Any questions please email me at Soccer6829@aol.com
please rate this tab and tell me what you think.
Comments