3 Doors Down - By My Side Chords & Tabs

 

By My Side Chords & Tabs

3 Doors Down Chords & Tabs

Version: 6 Type: Tab 0 ratings
1 star 2 stars 3 stars 4 stars 5 stars
comments

By My Side Tab

Band: 3 Doors Down
Song: By my side
Tabbed By: ToRK
E-mail: eved05@stdavids.co.za


Intro Riff:
e -------------------------------------------------------
B -------------------------------------------------------
G -------------------------------------------------------
D -5-5--1-1-1p0h1--8-8--3-3-3p0h3-5-5-1-1-1p0h1--8-8-3-5-
A -5-5-------------8-8------------5-5------------8-8-----
E -3-3-------------6-6------------3-3------------6-6-----

e --------------------------------------------------------
B --------------------------------------------------------
G --------------------------------------------------------
D -5-5--1-1-1p0h1--8-8--3-3-3p0h3-5-5-1-1-1p0h1--8-88888--
A -5-5-------------8-8------------5-5------------8-88888--
E -3-3-------------6-6------------3-3------------6-66666--

Riff2:
X4
e -----------------
B -----------------
G -----888-----000-
D -555-888-888-000-
A -555-666-888-888-the 0s are 10s
E -333-----666-----
[ Tab from: http://www.guitartabs.cc/tabs/0-9/3_doors_down/by_my_side_tab_ver_6.html ]
Verse Riff:
Palm Muted
X4
e ----------------- 
B -----------------
G -----888-----000- 
D -555-888-888-000- 
A -555-666-888-888- The 0s are 10s
E -333-----666-----

Chorus:
e ---------------------------------------------------
B ---------------------------------------------------
G ---------------------------------------------------
D ---1-1-1p0h1----3-3-3p0h3---1-1-1p0h1----3-5-------
A ---------------------------------------------------
E -33----------66----------33-----------66-----------

e --------------------------------------------------
B --------------------------------------------------
G --------------------------------------------------
D ---1-1-1p0h1----3-3-3p0h3---1-1-1p0h1-------------
A --------------------------------------------------
E -33----------66----------33-----------66----------

Riff4: 
X2
e -------------------------------------------------
B -------------------------------------------------
G -------------------------------------------------
D --------0-3-1-0-------0------0-3-1-0-------------
A ----1-3---------3-1-3-----1-3--------3-1-3-1-----
E -33---------------------33-------------------33

Breakdown:
Intro Riff
Riff2
Verse
Chorus
Riff4
Verse
Chorus
Solo
Riff4
Riff2 played with Chorus
Intro Riff
Riff2
End on Bb

Later 

ToRK  (eved05@stdavids.co.za)
Comments