3 Doors Down - By My Side Chords & Tabs

 

By My Side Chords & Tabs

3 Doors Down Chords & Tabs

Version: 4 Type: Tab 0 ratings
1 star 2 stars 3 stars 4 stars 5 stars
comments

By My Side Tab

K, I noticed a close version of the main song and also the solo
already submitted, however neither of them were completely correct
so i decided to submit my own personal tab of this song.  This tab
includes the main song and also the solo all broken down completely
so that it is easy to follow how the song actually goes.  After the
solo, the song is being played by guitar 2, but the first part is
all guitar 1.  Dont forget though that guitar 2 does have a part
in the first part of the song, its just not worth tabbing cause its
easy to figure out where.

B - Full Bend
b - Half bend
p - Pull off
h - Hammer
r - Release
* - Pinch Harmonics
~ - Vibrato
/ - Slide up
> - Hold
' - Palm Mute

e|-------------------------------------------------------
B|-------------------------------------------------------
G|----------------3-3-------------------------3-3---0----
D|--5-5-1-0-0h1p0-3-3-3-0-0h3p0-5-5-1-0-0h1p0-3-3-3------
A|--5-5-----------1-1-----------5-5-----------1-1--------
E|--3-3-------------------------3-3----------------------


e|-------------------------------------------------------
B|-------------------------------------------------------
G|----------------3-3-------------------------3-3-3-3-3--
D|--5-5-1-0-0h1p0-3-3-3-0-0h3p0-5-5-1-0-0h1p0-3-3-3-3-3--
A|--5-5-----------1-1-----------5-5-----------1-1-1-1-1--
E|--3-3-------------------------3-3----------------------


e|-------------------------------------------------------
B|-------------------------------------------------------
G|---------8-8-8-8-8---------10-10-10-10-10-------------- (x4)
D|--5-5-5--8-8-8-8-8--8-8-8--10-10-10-10-10--------------      (You Dont have to strum this rythm,
A|--5-5-5--6-6-6-6-6--8-8-8---8--8--8--8--8--------------       go ahead, make something up)
E|--3-3-3-------------6-6-6------------------------------


e|-------------------------------------------------------
B|-------------------------------------------------------
G|---------8-8-8-8-8---------10-10-10-10-10-------------- (x4)
D|--5-5-5--8-8-8-8-8--8-8-8--10-10-10-10-10--------------
A|--5-5-5--6-6-6-6-6--8-8-8---8--8--8--8--8--------------
E|--3-3-3-------------6-6-6------------------------------
    ' ' '  ' ' ' ' '  ' ' '   '  '  '  '  '

e|-------------------------------------------------------
B|-------------------------------------------------------
G|----------------3-3-------------------------3-3---0----
D|--5-5-1-0-0h1p0-3-3-3-0-0h3p0-5-5-1-0-0h1p0-3-3-3------
A|--5-5-----------1-1-----------5-5-----------1-1--------
E|--3-3-------------------------3-3----------------------


e|-------------------------------------------------------
B|-------------------------------------------------------
G|----------------3-3-------------------------3-3--------
D|--5-5-1-0-0h1p0-3-3-3-0-0h3p0-5-5-1-0-0h1p0-3-3-3------
A|--5-5-----------1-1-----------5-5-----------1-1--------
E|--3-3-------------------------3-3----------------------


e|-------------------------------------------------------
B|-------------------------------------------------------
G|-------------------------------------------------------
D|--5--5--------3--------------5--5--------3-------------
A|--5--5----3-5---6-5-3---3-5--5--5----3-5---6-5-3---3---
E|--3--3--6-------------6------3--3--6-------------6---3-


e|-------------------------------------------------------
B|-------------------------------------------------------
G|-------------------------------------------------------
D|--5--5--------3--------------5--5--------3-------------
A|--5--5----3-5---6-5-3---3-5--5--5----3-5---6-5-3---3---
E|--3--3--6-------------6------3--3--6-------------6---3-


e|-------------------------------------------------------
B|-------------------------------------------------------
G|-------------------------------------------------------
D|--5-5--------------------------------------------------
A|--5-5--------------------------------------------------
E|--3-3--------------------------------------------------


e|-------------------------------------------------------
B|-------------------------------------------------------
G|---------8-8-8-8-8---------10-10-10-10-10-------------- (x4)
D|--5-5-5--8-8-8-8-8--8-8-8--10-10-10-10-10--------------
A|--5-5-5--6-6-6-6-6--8-8-8---8--8--8--8--8--------------
E|--3-3-3-------------6-6-6------------------------------
    ' ' '  ' ' ' ' '  ' ' '   '  '  '  '  '

e|-------------------------------------------------------
B|-------------------------------------------------------
G|----------------3-3-------------------------3-3---0----
D|--5-5-1-0-0h1p0-3-3-3-0-0h3p0-5-5-1-0-0h1p0-3-3-3------
A|--5-5-----------1-1-----------5-5-----------1-1--------
E|--3-3-------------------------3-3----------------------

[ Tab from: http://www.guitartabs.cc/tabs/0-9/3_doors_down/by_my_side_tab_ver_4.html ]
e|-------------------------------------------------------
B|-------------------------------------------------------
G|----------------3-3-------------------------3-3---0----
D|--5-5-1-0-0h1p0-3-3-3-0-0h3p0-5-5-1-0-0h1p0-3-3-3------
A|--5-5-----------1-1-----------5-5-----------1-1--------
E|--3-3-------------------------3-3----------------------

                      !!![SOLO]!!!

e|-------------------------------------------------------
B|-------------------------------------------------------
G|--5B>r--3-----------3-5-3-5b*-5>b*---------------------
D|----------5~--5-3-5-----------------5p3--3h5-----------
A|---------------------------------------5---------------
E|-------------------------------------------------------


e|-------------------------------------------------------
B|-------------------------------------------------------
G|-------------3b-33h5p3---------------------------------
D|-------5-3-5---5-------5-3h5---------------------------
A|--5-55-------------------------------------------------
E|-------------------------------------------------------
      '

e|-------------------------------------------------------
B|------5/6-6B>6B6B6B------5/6-6B>6B6B6B-----------------
G|--3/5----------------3/5-------------------------------
D|-------------------------------------------------------
A|-------------------------------------------------------
E|-------------------------------------------------------


e|-------------------------------------------------------
B|--8p6--8p6--8p6--8p6--8p6--8p6--8p6--8-----------------
G|-----7----7----7----7----7----7----7-------------------
D|-------------------------------------------------------
A|-------------------------------------------------------
E|-------------------------------------------------------


e|-------------------------------------------------------
B|--8p6--6-----------------------------------------------
G|-----7---7-6-5-----------------------------------------
D|---------------8------8------0--------5----------------
A|-----------------8h10---10-8---3b-----5----------------
E|----------------------------------6-3-3----------------


e|-------------------------------------------------------
B|-------------------------------------------------------
G|-------------------------------------------------------
D|-----5--------3--------------5--5--------3-------------
A|-----5----3-5---6-5-3---3-5--5--5----3-5---6-5-3---3---
E|-----3--6-------------6------3--3--6-------------6---3-


e|-------------------------------------------------------
B|-------------------------------------------------------
G|-------------------------------------------------------
D|--5--5--------3--------------5--5--------3-------------
A|--5--5----3-5---6-5-3---3-5--5--5----3-5---6-5-3---3---
E|--3--3--6-------------6------3--3--6-------------6---3-


e|-------------------------------------------------------
B|-------------------------------------------------------
G|-------------------------------------------------------
D|--5-5--------------------------------------------------
A|--5-5--------------------------------------------------
E|--3-3--------------------------------------------------


e|-------------------------------------------------------
B|-------------------------------------------------------
G|---------8-8-8-8-8---------10-10-10-10-10-------------- (x8)
D|--5-5-5--8-8-8-8-8--8-8-8--10-10-10-10-10--------------
A|--5-5-5--6-6-6-6-6--8-8-8---8--8--8--8--8--------------
E|--3-3-3-------------6-6-6------------------------------


e|-------------------------------------------------------
B|-------------------------------------------------------
G|----------------3-3-------------------------3-3---0----
D|--5-5-1-0-0h1p0-3-3-3-0-0h3p0-5-5-1-0-0h1p0-3-3-3------
A|--5-5-----------1-1-----------5-5-----------1-1--------
E|--3-3-------------------------3-3----------------------


e|-------------------------------------------------------
B|-------------------------------------------------------
G|----------------3-3-------------------------3-3-3-3-3--
D|--5-5-1-0-0h1p0-3-3-3-0-0h3p0-5-5-1-0-0h1p0-3-3-3-3-3--
A|--5-5-----------1-1-----------5-5-----------1-1-1-1-1--
E|--3-3-------------------------3-3----------------------


e|-------------------------------------------------------
B|-------------------------------------------------------
G|---------8-8-8-8-8---------10-10-10-10-10-------------- (x3)
D|--5-5-5--8-8-8-8-8--8-8-8--10-10-10-10-10--------------
A|--5-5-5--6-6-6-6-6--8-8-8---8--8--8--8--8--------------
E|--3-3-3-------------6-6-6------------------------------


e|-------------------------------------------------------
B|-------------------------------------------------------
G|---------8-8-8-8-8---------10--------------------------
D|--5-5-5--8-8-8-8-8--8-8-8--10-(Let Ring)---------------
A|--5-5-5--6-6-6-6-6--8-8-8---8--------------------------
E|--3-3-3-------------6-6-6------------------------------

  Enjoy
    -Barringer
Comments