3 Doors Down - By My Side Chords & Tabs

 

3 Doors Down Chords & Tabs

Version: 1 Type: Tab 1 rating
1 star 2 stars 3 stars 4 stars 5 stars
comments

By My Side Tab

   
From: Bryzor@aol.com
sub: By My Side 
artist: 3 Doors Down

Here is the tab for a lesser known 3 Doors Down song, that I think is
pretty cool.


intro riff : gtr.1

part.1          part.2          on the second time play this for part 2      
                                
--------------------------------|--------------------------------
--------------------------------|--------------------------------
--------------------------------|--------------------------------
5-5-------------8-8-------------|-8-8-----------------------------
5-5--6-5-5h6p4--8-8--8-5-5h8p5--|-8-8--8-8s/20------------------
3-3-------------6-6-------------|-6-6--------------------------

and on the 4th time play this for part 2
 
 d d u u d d u u d
-------------------
-------------------------
-------------------------
-8-8-8-8-8-8-8-8-8
-8-8-8-8-8-8-8-8-8
-6-6-6-6-6-6-6-6-6



verse : gtr. 2         X = fret 10
[ Tab from: http://www.guitartabs.cc/tabs/0-9/3_doors_down/by_my_side_tab.html ]
 p.m. _____________________
||-----------------------------------||
||-----------------------------------||
||.-------8-8-8-8---------X-X-X-X---.||
||.-5-5-5-8-8-8-8-8-8-8-8-X-X-X-X-5-.||
||--5-5-5-6-6-6-6-8-8-8-8-8-8-8-8-5--||
||--3-3-3---------6-6-6-6---------3--||

repeat that for verse parts, sometimes it may not be palm muted.
gtr 1 will play the intro riff over verse part, you have to figure
out when though

and the final part the little fill/riff deal that comes at the end
of some of the verses.

gtr 1 plays

||-----------------------------------------------------||
||-----------------------------------------------------||
||.---------------------------------------------------.||
||.-5-5-------3----------------5-5------3-------------.||
||--5-5---3-5--6-5-3--3-5b6r5--5-5--3-5--6-5-3--3------||
||--3-3-6-----------6----------3-3-6----------6---3vv--||


I dont know the solo at this time, but you can play over the 
verse in G minor pentatonic, which is what their guitarist does, 
or any other scale that fits.  Hope you enjoy.  If you have any 
questions email me at Bryzor@aol.com.  Later


Comments