3 Doors Down - By My Side Chords & Tabs

 

By My Side Chords & Tabs

3 Doors Down Chords & Tabs

Version: 1 Type: Bass Tab 0 ratings
1 star 2 stars 3 stars 4 stars 5 stars
comments

By My Side Bass Tab

Guitar intro, but i like to play it aswell.
G-----------------|-----------------|-----------------|------------------|
D-----------------|-----------------|-----------------|------------------|
A-------6---5-565-|-------8---5-585-|-------6---5-565-|-------8---10-----|
E-3-3-------------|-6-6-------------|-3-3-------------|-6-6--------------|
           
Verse
G|------------------|-----------------|
D|------------------|-----------------|
A|--------6-6-6-6-6-|-------8-8-8-8-8-|		
E|-3-3-3------------|-6-6-6-----------|
[ Tab from: http://www.guitartabs.cc/tabs/0-9/3_doors_down/by_my_side_btab.html ]
Bridge
G|----------------------------------|----------------------------------|
D|---------3------------------------|---------3------------------------|
A|-----3-5---6-5-3----3---5---------|-----3-5---6-5-3----3-------------|
E|---6--------------6---------3---3-|---6--------------6-----3---3---3-|
   
Outro
G-----------------|-----------|
D-----------------|-----------|
A-------6-6-6-6-6-|--------8~-|
E-3-3-3-----------|-6-6-6-----|

Song Structure:

Intro   X2
Verse   X8
Intro   X2
Bridge  X2
Verse   X4
Intro   X2
Verse   X7
Bridge  X2
Verse   X8
Intro   X2
Verse   X3
Outro   X1
Comments