3 Doors Down - Better Life Chords & Tabs

 

Better Life Chords & Tabs

3 Doors Down Chords & Tabs

Version: 3 Type: Tab 0 ratings
1 star 2 stars 3 stars 4 stars 5 stars
comments

Better Life Tab

Artist:3doors down
Song: The better life
Album: The better life
Tabbed by: Philip Adamson

1st tab ever so please let me know if anything is wrong
Still working on the rest of the song
Flatscreen17@Hotmail.com


^ strum lightly
\ slide down
Listen to CD to understand

Intro
E|--------------------------------------------------|
B|--------------------------------------------------|
G|----------------------4---------------------------|
D|--2--4-^-4--2--4-^-4--4--4--2--4--2--4-^-4--------|
A|--2--4-^-4--2--4-^-4--2--4--2--4--2--4-^-4--------|
E|--0--2-^-2--0--2-^-2-----2--0--2--0--2-^-2--------|

E|--------------------------------------------------|
B|--------------------------------------------------|
G|--4-------------------4---------------------------|
D|--4--4-^-4--2--4-^-4--4--4--2--4------------------|
A|--2--4-^-2--2--4-^-4--2--4--2--4------------------|
E|-----2-^-2--0--2-^-2-----2--0--2------------------|
[ Tab from: http://www.guitartabs.cc/tabs/0-9/3_doors_down/better_life_tab_ver_3.html ]
Main Riff
E|--------------------------------------------------|
B|--------------------------------------------------|
G|--------------------------------------------------|
D|------------------7-------------------------------|
A|--9--9--9-9-9-9-7----9--9--9-9-9-9-7--------------|
E|-------------------------------------7------------|

E|--------------------------------------------------|
B|--------------------------------------------------|
G|--------------------------------------------------|
D|------------------7------------10\9---------------|
A|--9--9--9-9-9-9-7---9--9-9-9-9--------------------|
E|--------------------------------------------------|

E|--------------------------------------------------|
B|--------------------------------------------------|
G|--------------------------------------------------|
D|------------------7-------------------------------|
A|--9--9--9-9-9-9-7----9--9--9-9-9-9-7--------------|
E|-------------------------------------7------------|

E|--------------------------------------------------|
B|--------------------------------------------------|
G|--------------------------------------------------|
D|------------------7-----------------7-------------|
A|--9--9--9-9-9-9-7----9--9-9-9-9---7---------------|
E|--------------------------------7-----------------|
Comments