3 Doors Down - Better Life Chords & Tabs

 

Better Life Chords & Tabs

3 Doors Down Chords & Tabs

Version: 2 Type: Tab 0 ratings
1 star 2 stars 3 stars 4 stars 5 stars
comments

Better Life Tab



	3 Doors Down - Better Life
	Tabbed By: Sean Pincus - E-mail AF_band@hotmail.com

	"DON'T COMPLAIN CAUSE I DIDN'T SEE YOU WRITE IT"

	Question, Comments, Concerns - E-mail Me


	Notation Guide

	P  - Pull-Off
	H  - Hammer-On
	x  - Palm Mute
	~~ - Vibrato


	|-------------------------|
	|-------------------------|
	|-------------------------|
	|---0--4-P-0--x--4--------|  (2x)
	|---0--4-^-0--x--4--------|
	|---0--2---0--x--2--------|

	|-------------------------------------|
	|-------------------------------------|
	|---4---------------------------------|
	|---4--4-P-0--x--4----0--4-P-0--x--4--|
	|---2--4-^-0--x--4----0--4-^-0--x--4--|
	|------2---0--x--2----0--2---0--x--2--|
[ Tab from: http://www.guitartabs.cc/tabs/0-9/3_doors_down/better_life_tab_ver_2.html ]
	|-------------------------------------|
	|-------------------------------------|
	|---2---4-P-0--x--4-------------------|
        |---2---4-^-0--x--4---0--4-P-0--x--4--|
	|---0---2---0--x--2---0--4-^-0--x--4--|
	|---------------------0--2---0--x--2--|

	|-------------------------------------------------------|
	|-------------------------------------------------------|
	|---------------------2--4-P-0--x--4--------------------|
        |---0--4-P-0--x--4----2--4-^-0--x--4----0--4-P-0--x--4--|
        |---0--4-^-0--x--4----0--2---0--x--2----0--4-^-0--x--4--|
	|---0--2---0--x--2----------------------0--2---0--x--2--|

	|-------------------------------------------------------|
	|-------------------------------------------------------|
	|------------------H--------------------------H---------|
	|-----H----------7-^-9-9~~------H-----------7-^-9-------|  (Repeat Several 
Times)
	|---7-^-9-9-9-9---------------7-^-9-9-9-9---------7-----|
	|-------------------------------------------------------|



Comments