3 Doors Down - Behind Those Eyes Chords & Tabs

 

Behind Those Eyes Chords & Tabs

3 Doors Down Chords & Tabs

Version: 1 Type: Tab 1 rating
1 star 2 stars 3 stars 4 stars 5 stars
comments

Behind Those Eyes Tab

3 DOORS DOWN - BEHIND THOSE EYES
--------------------------------

INTRO/VERSE:
------------

e|----------------------------------|
B|---3-----1-----1h3---0h1----------|
G|-----2-----2-------------2--------|
D|-0-----0-----0-----0-------3--3p0-|
A|----------------------------------|
E|----------------------------------|

e|--------------------------------------|
B|--------------------------------------|
G|-----0-------------0------------------|
D|-0h2---2-------0h2---2----------0-----|
A|---------3--3----------3--3-0h2---2---|
E|------------------------------------3-|

e|------------------------0-1---1---|
B|---3-----1-----1h3----3---------0-|
G|-----2-----2----------------------|
D|-0-----0-----0-----0--------------|
A|----------------------------------|
E|----------------------------------|

e|-------------------------------|
B|-----1-------------------------|
G|-0h2---2---2p0---0-------------|
D|---------3-----3------2b3r2----|
A|----------------------------3--|
E|-------------------------------|

CHORUS
------

e|----------|
B|----------|
G|----------|
D|-2b3r2----|
A|-------3--|
E|----------|

e|---------------------------------------------|
B|---------------------------------------------|
G|---------------------------------------------|
D|-7----7-10--5----5-7---5----------7----------|
A|-5----5-8---3----3-5---5------3h5-5---7p5----|
E|-5----5-8---3----3-5---3---3h5----5-------5--|

SOLO BACKUP (not solo)
-----------
[ Tab from: http://www.guitartabs.cc/tabs/0-9/3_doors_down/behind_those_eyes_tab.html ]
e|-----------------------------------------------------------|
B|-----------------------------------------------------------|
G|-2---2---x-----------------------7=----------7=----7---7---|
D|-2---2---x--5---5-5--5--5--3=----7=--x-3=----7=--x-7---7---|
A|-0---0---x--5---5-5--5--5--3=--x-5=--x-3=--x-5=--x-5---5---|
E|------------3---3-3--3--3--1=--x-------1=--x---------------|

(interlude after solo)

e|-------0-------------------------------0--------------0--------|
B|-------0---------------3---3---------3-3--3---3-----3-3--3---3-|
G|-----2-----2---2-------0---0---0---2--------2-----2--------2---|
D|---2---------2-------0-------0---0--------------0--------------|
A|-0-----------------2-------------------------------------------|
E|-----------------3---------------------------------------------|

e|---------------------------------------0--------------0--------|
B|-------3---------------3---3---------3-3--3---3-----3-3--3---3-|
G|-----0-0---0---0-------0---0---0---2--------2-----2--------2---|
D|---2---------2-------0-------0---0--------------0--------------|
A|-3-----------------2-------------------------------------------|
E|-----------------3---------------------------------------------|

OUTRO
-----

e|-------------------------------------------------|
B|-------------------------------------------------|
G|-7---5---2---5---7-------------7-----------------|
D|-7---5---2---5---7---5----3----7-----------------|
A|-5---3---0---3---5---5----3----5-----------------|
E|---------------------3----1----5-----------------|

(work out when to use what, listen to the song first)
Comments