3 Doors Down - Be Like That Chords & Tabs

 

Be Like That Chords & Tabs

3 Doors Down Chords & Tabs

Version: 8 Type: Tab 0 ratings
1 star 2 stars 3 stars 4 stars 5 stars
comments

Be Like That Tab

   
Artist: 3 Doors Down
Song: Be Like That
Tabber: Joe Swindells (feeder_r_wicked@hotmail.com)

Standard Tuning

Chords Used:
G       3-2-0-0-3-3 (different way to play G) 
Dsus2   X-X-0-2-3-0
Em/D    0-2-2-0-3-0
C       X-3-2-0-1-0
Cmaj7   X-3-2-0-0-0

r=Let it ring
^=Strum up
v=Strum down

0:00 Intro 2X
Guitar 1
-|-------3r--------------0r--------------0r--------------0r----|-
-|---------3--------3------3-----------3---3-----------3---3---|-
-|---0-------0--------2------2-----------------0-----0-------0-|-
-|-----0-------0--0------------0-----0-------0-----2-----------|-
-|---------------------------------2-------------3-------------|-
-|-3-----------------------------0-----------------------------|-

0:20
Guitar 1
-|-------3r--------------0r--------------0r--------------0r----|-
-|---------3--------3------3-----------3---3-----------3---3---|-
-|---0-------0--------2------2-----------------0-----0-------0-|-
-|-----0-------0--0------------0-----0-------0-----2-----------|-
-|---------------------------------2-------------3-------------|-
-|-3-----------------------------0-----------------------------|-
He spends his nights in California, watching the stars on the big screen

0:30
Guitar 1
-|-------3r--------------0r--------------0r--------------0r----|-
-|---------3--------3------3-----------3---3-----------3---3---|-
-|---0-------0--------2------2-----------------0-----0-------0-|-
-|-----0-------0--0------------0-----0-------0-----2-----------|-
-|---------------------------------2-------------3-------------|-
-|-3-----------------------------0-----------------------------|-
Then he lies awake and he wonders, why canít that be me

0:40
Guitar 1
-|-------3r--------------0r--------------0r--------------0r----|-
-|---------3--------3------3-----------3---3-----------3---3---|-
-|---0-------0--------2------2-----------------0-----0-------0-|-
-|-----0-------0--0------------0-----0-------0-----2-----------|-
-|---------------------------------2-------------3-------------|-
-|-3-----------------------------0-----------------------------|-
Guitar 2
-|-3--------------0--------------0---------------0-------------|-
-|-3--------------3--------------2---------------3-------------|-
-|-0--------------2--------------0---------------0-------------|-
-|-0--------------0--------------0---------------2-------------|-
-|-2--------------0--------------2---------------3-------------|-
-|-3--------------X--------------X---------------X-------------|-
Cause in his life he is filled with all these good intentions heís left a lot of things heíd rather not mention right now

0:50
Guitar 1
-|-------3r--------------0r--------------0r--------------0r----|-
-|---------3--------3------3-----------3---3-----------3---3---|-
-|---0-------0--------2------2-----------------0-----0-------0-|-
-|-----0-------0--0------------0-----0-------0-----2-----------|-
-|---------------------------------2-------------3-------------|-
-|-3-----------------------------0-----------------------------|-
Guitar 2
-|-3--------------0--------------0---------------0-------------|-
-|-3--------------3--------------2---------------3-------------|-
-|-0--------------2--------------0---------------0-------------|-
-|-0--------------0--------------0---------------2-------------|-
-|-2--------------0--------------2---------------3-------------|-
-|-3--------------X--------------X---------------X-------------|-

But just before he says goodnight, he looks up with a little smile at me and he says


1:00
Guitar 1 
   v  ^v^ v ^ v ^ v  ^v^ v ^ v ^ v  ^v^ v ^ v ^ v  ^v^ v ^ v ^
-|-3--XXX-3-X-3-X-0--XXX-0-X-0-X-0--XXX-0-X-0-x-0--XXX-0-X-0-X-|-
-|-3--XXX-3-X-3-X-3--XXX-3-X-3-X-3--XXX-3-X-3-x-3--XXX-3-X-3-X-|-
-|-0--XXX-0-X-0-X-2--XXX-2-X-2-X-0--XXX-0-X-0-x-0--XXX-0-X-0-X-|-
-|-0--XXX-0-X-0-X-0--XXX-0-X-0-X-0--XXX-0-X-0-x-2--XXX-2-X-2-X-|-
-|-2--XXX-2-X-2-X-0--XXX-0-X-0-X-2--XXX-2-X-2-X-3--XXX-3-X-3-X-|-
-|-3--XXX-3-X-3-X-X--XXX-X-X-X-X-X--XXX-X-X-X-X-X--XXX-X-X-X-X-|-
Guitar 2
-|-3--------------0--------------0--------------0--------------|-
-|-3--------------3--------------2--------------3--------------|-
-|-0--------------2--------------0--------------0--------------|-
-|-0--------------0--------------0--------------2--------------|-
-|-2--------------0--------------2--------------3--------------|-
-|-3--------------X--------------X--------------X--------------|-

1:10
Guitar 1 
   v  ^v^ v ^ v ^ v  ^v^ v ^ v ^ v  ^v^ v ^ v ^ v  ^v^ v ^ v ^
-|-3--XXX-3-X-3-X-0--XXX-0-X-0-X-0--XXX-0-X-0-x-0--XXX-0-X-0-X-|-
-|-3--XXX-3-X-3-X-3--XXX-3-X-3-X-3--XXX-3-X-3-x-3--XXX-3-X-3-X-|-
-|-0--XXX-0-X-0-X-2--XXX-2-X-2-X-0--XXX-0-X-0-x-0--XXX-0-X-0-X-|-
-|-0--XXX-0-X-0-X-0--XXX-0-X-0-X-0--XXX-0-X-0-x-2--XXX-2-X-2-X-|-
-|-2--XXX-2-X-2-X-0--XXX-0-X-0-X-2--XXX-2-X-2-X-3--XXX-3-X-3-X-|-
-|-3--XXX-3-X-3-X-X--XXX-X-X-X-X-X--XXX-X-X-X-X-X--XXX-X-X-X-X-|-
Guitar 2
-|-3--------------0--------------0--------------0--------------|-
-|-3--------------3--------------2--------------3--------------|-
-|-0--------------2--------------0--------------0--------------|-
-|-0--------------0--------------0--------------2--------------|-
-|-2--------------0--------------2--------------3--------------|-
-|-3--------------X--------------X--------------X--------------|-

1:20
Guitar 1 
   v  ^v^ v ^ v ^ v  ^v^ v ^ v ^ v  ^v^ v ^ v ^ v  ^v^ v ^ v ^
-|-3--XXX-3-X-3-X-0--XXX-0-X-0-X-0--XXX-0-X-0-x-0--XXX-0-X-0-X-|-
-|-3--XXX-3-X-3-X-3--XXX-3-X-3-X-3--XXX-3-X-3-x-3--XXX-3-X-3-X-|-
-|-0--XXX-0-X-0-X-2--XXX-2-X-2-X-0--XXX-0-X-0-x-0--XXX-0-X-0-X-|-
-|-0--XXX-0-X-0-X-0--XXX-0-X-0-X-0--XXX-0-X-0-x-2--XXX-2-X-2-X-|-
-|-2--XXX-2-X-2-X-0--XXX-0-X-0-X-2--XXX-2-X-2-X-3--XXX-3-X-3-X-|-
-|-3--XXX-3-X-3-X-X--XXX-X-X-X-X-X--XXX-X-X-X-X-X--XXX-X-X-X-X-|-
Guitar 2
-|-3--------------0--------------0--------------0--------------|-
-|-3--------------3--------------2--------------3--------------|-
-|-0--------------2--------------0--------------0--------------|-
-|-0--------------0--------------0--------------2--------------|-
-|-2--------------0--------------2--------------3--------------|-
-|-3--------------X--------------X--------------X--------------|-

1:30
Guitar 1 
   v  ^v^ v ^ v ^ v  ^v^ v ^ v ^ v  ^v^ v ^ v ^ v  ^v^ v ^ v ^
-|-3--XXX-3-X-3-X-0--XXX-0-X-0-X-0--XXX-0-X-0-x-0--XXX-0-X-0-X-|-
-|-3--XXX-3-X-3-X-3--XXX-3-X-3-X-3--XXX-3-X-3-x-3--XXX-3-X-3-X-|-
-|-0--XXX-0-X-0-X-2--XXX-2-X-2-X-0--XXX-0-X-0-x-0--XXX-0-X-0-X-|-
-|-0--XXX-0-X-0-X-0--XXX-0-X-0-X-0--XXX-0-X-0-x-2--XXX-2-X-2-X-|-
-|-2--XXX-2-X-2-X-0--XXX-0-X-0-X-2--XXX-2-X-2-X-3--XXX-3-X-3-X-|-
-|-3--XXX-3-X-3-X-X--XXX-X-X-X-X-X--XXX-X-X-X-X-X--XXX-X-X-X-X-|-
Guitar 2
-|-3--------------0--------------0--------------0--------------|-
-|-3--------------3--------------2--------------3--------------|-
-|-0--------------2--------------0--------------0--------------|-
-|-0--------------0--------------0--------------2--------------|-
-|-2--------------0--------------2--------------3--------------|-
-|-3--------------X--------------X--------------X--------------|-

1:40
Guitar 1
-|-------3r--------------0r--------------0r--------------0r----|-
-|---------3--------3------3-----------3---3-----------3---3---|-
-|---0-------0--------2------2-----------------0-----0-------0-|-
-|-----0-------0--0------------0-----0-------0-----2-----------|-
-|---------------------------------2-------------3-------------|-
-|-3-----------------------------0-----------------------------|-

1:50
Guitar 1
-|-------3r--------------0r--------------0r--------------0r----|-
-|---------3--------3------3-----------3---3-----------3---3---|-
-|---0-------0--------2------2-----------------0-----0-------0-|-
-|-----0-------0--0------------0-----0-------0-----2-----------|-
-|---------------------------------2-------------3-------------|-
-|-3-----------------------------0-----------------------------|-

2:00
Guitar 1
-|-------3r--------------0r--------------0r--------------0r----|-
-|---------3--------3------3-----------3---3-----------3---3---|-
-|---0-------0--------2------2-----------------0-----0-------0-|-
-|-----0-------0--0------------0-----0-------0-----2-----------|-
-|---------------------------------2-------------3-------------|-
-|-3-----------------------------0-----------------------------|-

2:10
Guitar 1
-|-------3r--------------0r--------------0r--------------0r----|-
-|---------3--------3------3-----------3---3-----------3---3---|-
-|---0-------0--------2------2-----------------0-----0-------0-|-
-|-----0-------0--0------------0-----0-------0-----2-----------|-
-|---------------------------------2-------------3-------------|-
-|-3-----------------------------0-----------------------------|-

2:20
Guitar 1 
   v  ^v^ v ^ v ^ v  ^v^ v ^ v ^ v  ^v^ v ^ v ^ v  ^v^ v ^ v ^
-|-3--XXX-3-X-3-X-0--XXX-0-X-0-X-0--XXX-0-X-0-x-0--XXX-0-X-0-X-|-
-|-3--XXX-3-X-3-X-3--XXX-3-X-3-X-3--XXX-3-X-3-x-3--XXX-3-X-3-X-|-
-|-0--XXX-0-X-0-X-2--XXX-2-X-2-X-0--XXX-0-X-0-x-0--XXX-0-X-0-X-|-
-|-0--XXX-0-X-0-X-0--XXX-0-X-0-X-0--XXX-0-X-0-x-2--XXX-2-X-2-X-|-
-|-2--XXX-2-X-2-X-0--XXX-0-X-0-X-2--XXX-2-X-2-X-3--XXX-3-X-3-X-|-
-|-3--XXX-3-X-3-X-X--XXX-X-X-X-X-X--XXX-X-X-X-X-X--XXX-X-X-X-X-|-
Guitar 2
-|-3--------------0--------------0--------------0--------------|-
-|-3--------------3--------------2--------------3--------------|-
-|-0--------------2--------------0--------------0--------------|-
-|-0--------------0--------------0--------------2--------------|-
-|-2--------------0--------------2--------------3--------------|-
-|-3--------------X--------------X--------------X--------------|-
[ Tab from: http://www.guitartabs.cc/tabs/0-9/3_doors_down/be_like_that_tab_ver_8.html ]
2:30
Guitar 1 
   v  ^v^ v ^ v ^ v  ^v^ v ^ v ^ v  ^v^ v ^ v ^ v  ^v^ v ^ v ^
-|-3--XXX-3-X-3-X-0--XXX-0-X-0-X-0--XXX-0-X-0-x-0--XXX-0-X-0-X-|-
-|-3--XXX-3-X-3-X-3--XXX-3-X-3-X-3--XXX-3-X-3-x-3--XXX-3-X-3-X-|-
-|-0--XXX-0-X-0-X-2--XXX-2-X-2-X-0--XXX-0-X-0-x-0--XXX-0-X-0-X-|-
-|-0--XXX-0-X-0-X-0--XXX-0-X-0-X-0--XXX-0-X-0-x-2--XXX-2-X-2-X-|-
-|-2--XXX-2-X-2-X-0--XXX-0-X-0-X-2--XXX-2-X-2-X-3--XXX-3-X-3-X-|-
-|-3--XXX-3-X-3-X-X--XXX-X-X-X-X-X--XXX-X-X-X-X-X--XXX-X-X-X-X-|-
Guitar 2
-|-3--------------0--------------0--------------0--------------|-
-|-3--------------3--------------2--------------3--------------|-
-|-0--------------2--------------0--------------0--------------|-
-|-0--------------0--------------0--------------2--------------|-
-|-2--------------0--------------2--------------3--------------|-
-|-3--------------X--------------X--------------X--------------|-

2:40
Guitar 1 
   v  ^v^ v ^ v ^ v  ^v^ v ^ v ^ v  ^v^ v ^ v ^ v  ^v^ v ^ v ^
-|-3--XXX-3-X-3-X-0--XXX-0-X-0-X-0--XXX-0-X-0-x-0--XXX-0-X-0-X-|-
-|-3--XXX-3-X-3-X-3--XXX-3-X-3-X-3--XXX-3-X-3-x-3--XXX-3-X-3-X-|-
-|-0--XXX-0-X-0-X-2--XXX-2-X-2-X-0--XXX-0-X-0-x-0--XXX-0-X-0-X-|-
-|-0--XXX-0-X-0-X-0--XXX-0-X-0-X-0--XXX-0-X-0-x-2--XXX-2-X-2-X-|-
-|-2--XXX-2-X-2-X-0--XXX-0-X-0-X-2--XXX-2-X-2-X-3--XXX-3-X-3-X-|-
-|-3--XXX-3-X-3-X-X--XXX-X-X-X-X-X--XXX-X-X-X-X-X--XXX-X-X-X-X-|-
Guitar 2
-|-3--------------0--------------0--------------0--------------|-
-|-3--------------3--------------2--------------3--------------|-
-|-0--------------2--------------0--------------0--------------|-
-|-0--------------0--------------0--------------2--------------|-
-|-2--------------0--------------2--------------3--------------|-
-|-3--------------X--------------X--------------X--------------|-

2:50
Guitar 1 
   v  ^v^ v ^ v ^ v  ^v^ v ^ v ^ v  ^v^ v ^ v ^ v  ^v^ v ^ v ^
-|-3--XXX-3-X-3-X-0--XXX-0-X-0-X-0--XXX-0-X-0-x-0--XXX-0-X-0-X-|-
-|-3--XXX-3-X-3-X-3--XXX-3-X-3-X-3--XXX-3-X-3-x-3--XXX-3-X-3-X-|-
-|-0--XXX-0-X-0-X-2--XXX-2-X-2-X-0--XXX-0-X-0-x-0--XXX-0-X-0-X-|-
-|-0--XXX-0-X-0-X-0--XXX-0-X-0-X-0--XXX-0-X-0-x-2--XXX-2-X-2-X-|-
-|-2--XXX-2-X-2-X-0--XXX-0-X-0-X-2--XXX-2-X-2-X-3--XXX-3-X-3-X-|-
-|-3--XXX-3-X-3-X-X--XXX-X-X-X-X-X--XXX-X-X-X-X-X--XXX-X-X-X-X-|-
Guitar 2
-|-3--------------0--------------0--------------0--------------|-
-|-3--------------3--------------2--------------3--------------|-
-|-0--------------2--------------0--------------0--------------|-
-|-0--------------0--------------0--------------2--------------|-
-|-2--------------0--------------2--------------3--------------|-
-|-3--------------X--------------X--------------X--------------|-

3:00
Guitar 1
-|-------3r--------------0r--------------0r--------------0r----|-
-|---------3--------3------3-----------3---3-----------3---3---|-
-|---0-------0--------2------2-----------------0-----0-------0-|-
-|-----0-------0--0------------0-----0-------0-----2-----------|-
-|---------------------------------2-------------3-------------|-
-|-3-----------------------------0-----------------------------|-

3:10
Guitar 1
-|-------3r--------------0r--------------0r--------------0r----|-
-|---------3--------3------3-----------3---3-----------3---3---|-
-|---0-------0--------2------2-----------------0-----0-------0-|-
-|-----0-------0--0------------0-----0-------0-----2-----------|-
-|---------------------------------2-------------3-------------|-
-|-3-----------------------------0-----------------------------|-

3:20
Guitar 1 
   v  ^v^ v ^ v ^ v  ^v^ v ^ v ^ v  ^v^ v ^ v ^ v  ^v^ v ^ v ^
-|-3--XXX-3-X-3-X-0--XXX-0-X-0-X-0--XXX-0-X-0-x-0--XXX-0-X-0-X-|-
-|-3--XXX-3-X-3-X-3--XXX-3-X-3-X-3--XXX-3-X-3-x-3--XXX-3-X-3-X-|-
-|-0--XXX-0-X-0-X-2--XXX-2-X-2-X-0--XXX-0-X-0-x-0--XXX-0-X-0-X-|-
-|-0--XXX-0-X-0-X-0--XXX-0-X-0-X-0--XXX-0-X-0-x-2--XXX-2-X-2-X-|-
-|-2--XXX-2-X-2-X-0--XXX-0-X-0-X-2--XXX-2-X-2-X-3--XXX-3-X-3-X-|-
-|-3--XXX-3-X-3-X-X--XXX-X-X-X-X-X--XXX-X-X-X-X-X--XXX-X-X-X-X-|-
Guitar 2
-|-3--------------0--------------0--------------0--------------|-
-|-3--------------3--------------2--------------3--------------|-
-|-0--------------2--------------0--------------0--------------|-
-|-0--------------0--------------0--------------2--------------|-
-|-2--------------0--------------2--------------3--------------|-
-|-3--------------X--------------X--------------X--------------|-

3:30
Guitar 1 
   v  ^v^ v ^ v ^ v  ^v^ v ^ v ^ v  ^v^ v ^ v ^ v  ^v^ v ^ v ^
-|-3--XXX-3-X-3-X-0--XXX-0-X-0-X-0--XXX-0-X-0-x-0--XXX-0-X-0-X-|-
-|-3--XXX-3-X-3-X-3--XXX-3-X-3-X-3--XXX-3-X-3-x-3--XXX-3-X-3-X-|-
-|-0--XXX-0-X-0-X-2--XXX-2-X-2-X-0--XXX-0-X-0-x-0--XXX-0-X-0-X-|-
-|-0--XXX-0-X-0-X-0--XXX-0-X-0-X-0--XXX-0-X-0-x-2--XXX-2-X-2-X-|-
-|-2--XXX-2-X-2-X-0--XXX-0-X-0-X-2--XXX-2-X-2-X-3--XXX-3-X-3-X-|-
-|-3--XXX-3-X-3-X-X--XXX-X-X-X-X-X--XXX-X-X-X-X-X--XXX-X-X-X-X-|-
Guitar 2
-|-3--------------0--------------0--------------0--------------|-
-|-3--------------3--------------2--------------3--------------|-
-|-0--------------2--------------0--------------0--------------|-
-|-0--------------0--------------0--------------2--------------|-
-|-2--------------0--------------2--------------3--------------|-
-|-3--------------X--------------X--------------X--------------|-

3:40
Guitar 1 
   v  ^v^ v ^ v ^ v  ^v^ v ^ v ^ v  ^v^ v ^ v ^ v  ^v^ v ^ v ^
-|-3--XXX-3-X-3-X-0--XXX-0-X-0-X-0--XXX-0-X-0-x-0--XXX-0-X-0-X-|-
-|-3--XXX-3-X-3-X-3--XXX-3-X-3-X-3--XXX-3-X-3-x-3--XXX-3-X-3-X-|-
-|-0--XXX-0-X-0-X-2--XXX-2-X-2-X-0--XXX-0-X-0-x-0--XXX-0-X-0-X-|-
-|-0--XXX-0-X-0-X-0--XXX-0-X-0-X-0--XXX-0-X-0-x-2--XXX-2-X-2-X-|-
-|-2--XXX-2-X-2-X-0--XXX-0-X-0-X-2--XXX-2-X-2-X-3--XXX-3-X-3-X-|-
-|-3--XXX-3-X-3-X-X--XXX-X-X-X-X-X--XXX-X-X-X-X-X--XXX-X-X-X-X-|-
Guitar 2
-|-3--------------0--------------0--------------0--------------|-
-|-3--------------3--------------2--------------3--------------|-
-|-0--------------2--------------0--------------0--------------|-
-|-0--------------0--------------0--------------2--------------|-
-|-2--------------0--------------2--------------3--------------|-
-|-3--------------X--------------X--------------X--------------|-

3:50
Guitar 1 
   v  ^v^ v ^ v ^ v  ^v^ v ^ v ^ v  ^v^ v ^ v ^ v  ^v^ v ^ v ^
-|-3--XXX-3-X-3-X-0--XXX-0-X-0-X-0--XXX-0-X-0-x-0--XXX-0-X-0-X-|-
-|-3--XXX-3-X-3-X-3--XXX-3-X-3-X-3--XXX-3-X-3-x-3--XXX-3-X-3-X-|-
-|-0--XXX-0-X-0-X-2--XXX-2-X-2-X-0--XXX-0-X-0-x-0--XXX-0-X-0-X-|-
-|-0--XXX-0-X-0-X-0--XXX-0-X-0-X-0--XXX-0-X-0-x-2--XXX-2-X-2-X-|-
-|-2--XXX-2-X-2-X-0--XXX-0-X-0-X-2--XXX-2-X-2-X-3--XXX-3-X-3-X-|-
-|-3--XXX-3-X-3-X-X--XXX-X-X-X-X-X--XXX-X-X-X-X-X--XXX-X-X-X-X-|-
Guitar 2
-|-3--------------0--------------0--------------0--------------|-
-|-3--------------3--------------2--------------3--------------|-
-|-0--------------2--------------0--------------0--------------|-
-|-0--------------0--------------0--------------2--------------|-
-|-2--------------0--------------2--------------3--------------|-
-|-3--------------X--------------X--------------X--------------|-

4:00
Guitar 1 
   v  ^v^ v ^ v ^ v  ^v^ v ^ v ^ v  ^v^ v ^ v ^ v  ^v^ v ^ v ^
-|-3--XXX-3-X-3-X-0--XXX-0-X-0-X-0--XXX-0-X-0-x-0--XXX-0-X-0-X-|-
-|-3--XXX-3-X-3-X-3--XXX-3-X-3-X-3--XXX-3-X-3-x-3--XXX-3-X-3-X-|-
-|-0--XXX-0-X-0-X-2--XXX-2-X-2-X-0--XXX-0-X-0-x-0--XXX-0-X-0-X-|-
-|-0--XXX-0-X-0-X-0--XXX-0-X-0-X-0--XXX-0-X-0-x-2--XXX-2-X-2-X-|-
-|-2--XXX-2-X-2-X-0--XXX-0-X-0-X-2--XXX-2-X-2-X-3--XXX-3-X-3-X-|-
-|-3--XXX-3-X-3-X-X--XXX-X-X-X-X-X--XXX-X-X-X-X-X--XXX-X-X-X-X-|-
Guitar 2
-|-3--------------0--------------0--------------0--------------|-
-|-3--------------3--------------2--------------3--------------|-
-|-0--------------2--------------0--------------0--------------|-
-|-0--------------0--------------0--------------2--------------|-
-|-2--------------0--------------2--------------3--------------|-
-|-3--------------X--------------X--------------X--------------|-

4:10
Guitar 1 
   v  ^v^ v ^ v ^ v  ^v^ v ^ v ^
-|-3--XXX-3-X-3-X-0--XXX-0-X-0-X-|-
-|-3--XXX-3-X-3-X-3--XXX-3-X-3-X-|-
-|-0--XXX-0-X-0-X-2--XXX-2-X-2-X-|-
-|-0--XXX-0-X-0-X-0--XXX-0-X-0-X-|-
-|-2--XXX-2-X-2-X-0--XXX-0-X-0-X-|-
-|-3--XXX-3-X-3-X-X--XXX-X-X-X-X-|-

Lyrics:
He spends his nights in California, watching
The stars on the big screen
Then he lies awake and he wonders, why
Canít that be me
Cause in his life he is filled with all these good intentions
Heís left a lot of things heíd rather not
Mention right now
But just before he says goodnight, he looks
Up with a little smile at me and he says

If I could be like that, I would 
Give anything
Just to live one day, in those shoes
If I could be like that, what would I do,
What would I do

Now and dreams we run

She spends her days up in the north park,
Watching the people as they pass
And all she wants is just a little piece of
This dream, is that too much to ask
With a safe home, and a warm bed, on a
quiet little street
All she wants is just that something to
Hold onto, thatís all she needs

Yeah!!

If I could be like that,
I would give anything
Just to live one day, in those shoes
If I could be like that, what would I do,
What would I do

Iím falling into this, in dreams
We run away

If I could be like that, I would
Give anything
Just to live one day, in those shoes
If I could be like that, what would I do,
What would I do

If I could be like that, I would
Give anything
Just to live one day, in those shoes
If I could be like that, what would I do,
What would I do

If I could be like that, I would
Give anything
Just to live one day, in those shoes
If I could be like that, what would I
do, what would I do

Falling in
I feel I am falling in, to this again
Comments