3 Doors Down - Be Like That Chords & Tabs

 

Be Like That Chords & Tabs

3 Doors Down Chords & Tabs

Version: 6 Type: Tab 0 ratings
1 star 2 stars 3 stars 4 stars 5 stars
comments

Be Like That Tab

e:--------3------------------0----------------0-----
B:----------3-----------3------3------------3---3---
G:----0--------0-----------2-----2--------0-------0-
D:------0---------0--0-------------0----2-----------
A:--------------------------------------------------
E:--3---------------------------------0-------------

e:--------------0--------
B:-----------3-----3-----      Now if you think that's a bad
G:--------0-----------0--      tab,  you must be screwed up
D:-----2-----------------      in the head!
A:--3--------------------
E:-----------------------

Any advice?
[ Tab from: http://www.guitartabs.cc/tabs/0-9/3_doors_down/be_like_that_tab_ver_6.html ]
Comments